Knaan - If Rap Gets Jealous tab

This is the "If rap gets jealous" solo tab. It's not quite right but no one has
tabbed this yet so this is just for giving you the idea about the solo.

e-----------------------------------------------------------|
b-----------------------------------------------------------|
d-----------------------------------------------------------|
g-----------------------------------------------------------|
a--------2---------2--4-4--2/---------2----------2--4-4p2-2-|
e---4b-------2--4-----------------4b-------2--4-------------|

e---------5-7b--5-----5-7-5--5-----------------------------|
b----7h5--------------------7--7-5--5----------------------|
d---------------------------------8--8-6-8-----------------|
g------------------------------------------9-6-------------|
a----------------------------------------------------------|
e----------------------------------------------------------|

e----------------------------------------------------------|
b------------------------------9(let ring)-----------------|
g---------6hp8----------6----------------------------------|
d----6--9-------9-6-999------------------------------------|
a----------------------------------------------------------|
e----------------------------------------------------------|

e-------------------9/11-11--11-9-7------------------------|
b--9--9-----------------------------9----------------------|
g--------8hp11-8-6-----------------------------------------|
d----------------------------------------------------------|
a----------------------------------------------------------|
e----------------------------------------------------------|

e---2/4--4/7--7/9--9/11--11/14--14/16-----------16--------16--------16-|
b--------------------------------------19p16-16----16hp19----16hp19----|
g----------------------------------------------------------------------|
d----------------------------------------------------------------------|
a----------------------------------------------------------------------|
e----------------------------------------------------------------------|

e---------16--------16--------16--------16--------16--------16---------212121-|
b-19p16-16----16hp19----16hp19----16hp19----16hp19----16hp19----16hp19--------|
g-----------------------------------------------------------------------------|
d-----------------------------------------------------------------------------|
a-----------------------------------------------------------------------------|
e-----------------------------------------------------------------------------|

Havent found out the rest yet but just improve some of these tones.
Tap to rate this tab
 
# A B C D E F G H I J K L M N O P Q R S T U V W X Y Z