Song name
# A B C D E F G H I J K L M N O P Q R S T U V W X Y Z

Knaan - Wavin Flag tab

-------------------------------------------------------------------------------
			     Wavin Flag - Knaan
-------------------------------------------------------------------------------
Tabbed by:Hernandez93
Description: First tab so not going to be great but its world cup soon
and im kind of excited / Its pretty much the main riff plus the "and then it goes back" bit
 

Tuning: Standard Tuning

Chords: C F Am G

e|---------------------------------------------------------------------------|
B|---------------------------------------------------------------------------|
G|------------7-9----------10-10-10-9-7-----9-9-9-7--------------------------|
D|-----10-10-------10--------------------------------10----------------------|
A|---------------------------------------------------------------------------|
E|---------------------------------------------------------------------------|

e|---------------------------------------------------------------------------|
B|---------------------------------------------------------------------------|
G|-----7-7-7-----------------------------------------------------------------|
D|------------10-9-10--------------------------------------------------------|
A|---------------------------------------------------------------------------|
E|---------------------------------------------------------------------------|

e|---------------------------------------------------------------------------|
B|---------------------------------------------------------------------------|
G|---------------------------------------------------------------------------|
D|----10-10-10-9-10----10-10-10-9-10---10-10-10-9-10-------------------------|
A|---------------------------------------------------------------------------|
E|---------------------------------------------------------------------------|
Tap to rate this tab
 
# A B C D E F G H I J K L M N O P Q R S T U V W X Y Z