Knaan - Wavin Flag Acoustic tab

|----------------------------------------------------------------------------|
|----------------------------------------------------------------------------|
|-0-0--2--/4--0--/5-5--5-4--\2--4-4--4--\2--0---2-2-/4\2-0-----0--0-2-0---0--|
|----------------------------------------------------------4-------------4---|
|----------------------------------------------------------------------------|
|----------------------------------------------------------------------------|

|--------------------------------|
|--------------------------------|
|-0-2-0-----/4-0-2-/4-0~ --------|
|-------4------------------------|
|--------------------------------|
|--------------------------------|
Tap to rate this tab
 
# A B C D E F G H I J K L M N O P Q R S T U V W X Y Z