Song name
# A B C D E F G H I J K L M N O P Q R S T U V W X Y Z

Knapsack - Arrows To The Action tab

-------------------------------------------------------------------------------
			     ARROWS TO THE ACTION - Knapsack
-------------------------------------------------------------------------------
Tabbed by: dbess
Email:

Tuning: standard

INTRO/BRIDGE
e|----------------------------------------------------------------------------|
B|----------------------------------------------------------------------------|
G|----------------------------------------------------------------------------|
D|-------------11------11--12--11------14/16--11------------------------------|
A|---9--12--9------12--------------12-----------------------------------------|
E|----------------------------------------------------------------------------|

e|----------------------------------------------------------------------------|
B|----------------------------------------------------------------------------|
G|----------------------------------------------------------------------------|
D|-------------11------11--12--11------11-------------------------------------|
A|---9--12--9------12--------------12-----------------------------------------|
E|----------------------------------------------------------------------------|


VERSE
e|----------------------------------------------------------------------------|
B|----------------------------------------------------------------------------|
G|---11-----7-----------------------------------------------------------------|
D|---11-----7-----11--12-----7-----9------------------------------------------|
A|----9-----5-----11--12-----7-----9------------------------------------------|
E|-----------------9--10-----5-----7------------------------------------------|


CHORUS
e|----------------------------------------------------------------------------|
B|----------------------------------------------------------------------------|
G|---------7--------------7-----------------7---------------------------------|
D|---4-----7--7-----9-----7-----4-----7-----7---------------------------------|
A|---4-----5--7-----9-----5-----4-----7-----5---------------------------------|
E|---2--------5-----7-----------2-----5---------------------------------------|

(BRIDGE)
(VERSE)
(CHORUS)

BREAKDOWN
e|----------------------------------------------------------------------------|
B|----------------------------------------------------------------------------|
G|----------------------------------------------------------------------------|
D|---11----------------------------11------------------------------11-11-11---|
A|----9----11-----9----11-----9-----9----11-----9----11-----9-------9--9--9---|
E|----------9-----7-----9-----7-----------9-----7-----9-----7-----------------|

(VERSE)
(CHORUS)

| /  slide up
| \  slide down
| h  hammer-on
| p  pull-off
| ~  vibrato
| +  harmonic
| x  Mute note
===============================================================================
Tap to rate this tab
 
# A B C D E F G H I J K L M N O P Q R S T U V W X Y Z