Song name
# A B C D E F G H I J K L M N O P Q R S T U V W X Y Z

Knapsack - Arrows To The Action tab

---------------------------------------------------------------------------
			     Arrows to the Action
                                Knapsack                       
---------------------------------------------------------------------------
Tabbed by:Tim Kallas
Email:


intro
e|-------------------------------------------------------------------|
B|-------------------------------------------------------------------|
G|---------6----6-7-6-----/11--------------6----6-7-6----6----6\-----|
D|----7------7---------7-------11\-----7-----7--------7-----7--------|
A|-/9---9---------------------------/9---9---------------------------|
E|-------------------------------------------------------------------|

e|-------------------------------------------------------------------|
B|-------------------------------------------------------------------|
G|---------6----6-7-6-----/11--------------6-----7-9-7-6---6h7p6-----|
D|----7------7---------7-------11\-----7------7------------------7/--|
A|-/9---9---------------------------/9---9---------------------------|
E|-------------------------------------------------------------------|

bass during intro
G|----------------------------|
D|----------------------------|
A|------------2-----4---------|
E|--2----5--------------------|


verse
e|-------------------------------------------------------------------|
B|-------------------------------------------------------------------|
G|--9/11----7-7-7-7---6---7---2---4----------------------------------|
D|----------7-7-7-7---6---7---2---4----------------------------------|
A|--7/9-----5-4-5-4---4---5---0---2----------------------------------|
E|-------------------------------------------------------------------|

chorus
e|----------------------------------------------------------------|
B|----------------------------------------------------------------|
G|------7---2---4---7---11---2---7--------------------------------|
D|--4---7---2---4---7---11---2---7--------------------------------|
A|--4---5---0---2---5---9----0---5--------------------------------|
E|--2-------------------------------------------------------------|

interlude
e|--------------------------|--------------------------------------|
B|--------------------------|--------------------------------------|
G|--------------------------|---11-11-11-11------------------------|
D|---11---11----------------|---11-11-11-11------------------------|
A|---9----8----9---6---9----|---9--9--9--9-------------------------|
E|-------------7---4---7----|--------------------------------------|

end
e|-----------------------------------------------------------------------|
B|-----------------------------------------------------------------------|
G|-----------------------------------------------------------------------|
D|---4-------------------------------------------------------------------|
A|---4-------------------------------------------------------------------|
E|---2-------------------------------------------------------------------|

************************************

| /   slide up
| \   slide down
| h   hammer-on
| p   pull-off
| ~   vibrato
| +   harmonic
| x   Mute note
| b   Bend
| pb  Pre-bend
| br  Bend release
| pbr Pre-bend release
| brb Bend release bend

************************************
Tap to rate this tab
# A B C D E F G H I J K L M N O P Q R S T U V W X Y Z