Guitaretab - guitar tabs
Song name
# A B C D E F G H I J K L M N O P Q R S T U V W X Y Z

Knapsack - Please Shut Off The Lights tab

http://www.aliasrecords.com/knapsack.htm
********************************************************************
Artist: Knapsack
Song: Please shut off the lights
Tabbed by: jr_bilodeau@hotmail.com
********************************************************************

Tunning: Standard
x - mute string with playing hand not strumming hand
\ - slide
h - hammer-on
p - pull-off

[Verse]

[Guitar 1] 	
E-----------------------------------------------------------
B-----------------------------------------------------------
G-7-7-xx-7-7-xx-7-7-x5-5-5-5-5-----------------------------
D-7-7-xx-7-7-xx-7-7-x5-5-5-5-5-5-5-xx-5-5-xx-5-5-xx-5-5-xx-
A-5-5-xx-5-5-xx-5-5-x7-7-7-7-7-5-5-xx-5-5-xx-5-5-xx-5-5-xx-
E-------------------------------7-7-xx-7-7-xx-7-7-xx-7-7-xx-

								[x2]
E----------------------------------------------------------
B----------------------------------------------------------
G----------------------7-7-7-7-----------------------------
D-5-5-xx-5-5-xx-5-5-xx7-7-7-77-7-xx-7-7-xx-7-7-xx-7-7-xx-
A-5-5-xx-5-5-xx-5-5-xx5-5-5-57-7-xx-7-7-xx-7-7-xx-7-7-xx-
E-3-3-xx-3-3-xx-3-3-xx---------5-5-xx-5-5-xx-5-5-xx-5-5-xx-

	
[Guitar 1] 
E-----------------------------------------------------------
B-----------------------------------------------------------
G-7-7-xx-7-7-xx-7-7-x5-5-5-5-5-----------------------------
D-7-7-xx-7-7-xx-7-7-x5-5-5-5-5-5-5-xx-5-5-xx-5-5-xx-5-5-xx-
A-5-5-xx-5-5-xx-5-5-x7-7-7-7-7-5-5-xx-5-5-xx-5-5-xx-5-5-xx-
E-------------------------------7-7-xx-7-7-xx-7-7-xx-7-7-xx-

								[x2]
E----------------------------------------------------------
B----------------------------------------------------------
G----------------------7-7-7-7-----------------------------
D-5-5-xx-5-5-xx-5-5-xx7-7-7-77-7-xx-7-7-xx-7-7-xx-7-7-xx-
A-5-5-xx-5-5-xx-5-5-xx5-5-5-57-7-xx-7-7-xx-7-7-xx-7-7-xx-
E-3-3-xx-3-3-xx-3-3-xx---------5-5-xx-5-5-xx-5-5-xx-5-5-xx-


[Guitar 2] 
E-----------------------
B-----------------------
G-9-9--1111--9-9-\-7-7-
D-----------------------  [x16]
A-----------------------
E-----------------------



[Chorus]
[ Tab from: http://www.guitaretab.com/k/knapsack/33850.html ]
[Guitar 1]
E---------------------------------------------------------
B---------------------------------------------------------
G-9-9-9-xx--------------------9-9-9-xx--------------------
D-9-9-9-xx9-9-9-xx--555555559-9-9-xx-9-9-9-xx--55555555- [X2]
A-7-7-7-xx9-9-9-xx--555555557-7-7-xx-9-9-9-xx--55555555-
E----------7-7-7-xx--33333333----------7-7-7-xx--33333333-

[Guitar 2]
E----------------------------
B----------------------------
G----------------------------
D-4h5p4h7-5p4-4--4h5p4h7-5p4-
A--------------------------5-
E----------------------------


[Guitar 1]
E------------------------------------------------
B------------------------------------------------
G-9-9-9-xx---------------------------------------
D-9-9-9-xx-11-11-11-xx--12-12-12-12-12-12-12-12- [X2]
A-7-7-7-xx-9--9--9--xx--12-12-12-12-12-12-12-12-
E------------------------10-10-10-10-10-10-10-10-



[INTERLUDE]
E-----------------
B-----------------
G-----------------
D-----0-------0--- X4
A---0---0---0---0-
E-3-------3-------

[Outro]
E-----------------------------------------------------------
B-----------------------------------------------------------
G-7-7-7-xx--9-9-9-xx----------------------4-4-4-xx--7-7-7-xx
D-7-7-7-xx--9-9-9-xx--4-4-4-xx--5-5-5-xx--4-4-4-xx--7-7-7-xx
A-5-5-5-xx--7-7-7-xx--4-4-4-xx--5-5-5-xx--2-2-2-xx--5-5-5-xx
E---------------------2-2-2-xx--3-3-3-xx--------------------

E---------------------------------------------------------
B---------------------------------------------------------
G------------------7-7-7-xx--9-9-9-xx---------------------
D-5-5-5-x-x-5-5-5--7-7-7-xx--9-9-9-xx--4-4-4-xx--5-5-5-xx-
A-5-5-5-x-x-5-5-5--5-5-5-xx--7-7-7-xx--4-4-4-xx--5-5-5-xx-
E-3-3-3-x-x-3-3-3----------------------2-2-2-xx--3-3-3-xx-

E-----------------------
B-----------------------
G-4-4-4-xx--9-9-9-xx--7-
D-4-4-4-xx--9-9-9-xx--7-[Let last chord Ring]
A-2-2-2-xx--7-7-7-xx--5-
E-----------------------


[Order]
Verse
Chorus
Interlude
Verse
Chorus
Interlude
Outro


[Lyrics]

It wraps around the cord for him
Said I'm wasting, sinking
Soaking in to bones and cartilage
Crossing out the quarter where he lives

So I have arrived
Know this nothing gets me nowhere
Know I am larger than this lie
Our generations

I have only one regret
At the moment I forget
Any takers on this life
And if you're the last one left
This is my request
Could you just shut off the lights

Take a sample and let it testify
Drowning endless estimation anger of my life
Terrorized to the ending of my end
Everything is absent is nothing I can give

So I have arrived
Know this nothing gets me nowhere
Know I am larger than this lie
Our generations

I have only one regret
At the moment I forget
Any takers on this life
And if you're the last one left
This is my request
Could you just shut off the lights
Related for Please Shut Off The Lights tab