Song name
# A B C D E F G H I J K L M N O P Q R S T U V W X Y Z

Knapsack - Change Is All The Rage tab

Title: Change is All the Rage
Artist: Knapsack
Album: This Conversation is Ending...Starting Right Now
Tabbed by: Kris Johansen - krisjohansen@guitarsrule.com

Intro

e----------------------------------------------------------------------|
B----------------------------------------------------------------------|
G--------7--------12-----4---4-------12--------------------------------|
D-----7--5--7--/--12-----4---4---7---12--------------------------------|
A-----5-----5--/--10-----2---2---5---10--------------------------------|
E----------------------------------------------------------------------|

keyboard? part

e----------------------------------------------------------------------|
B----------------------------------------------------------------------|
G----12--11--9-11-11-----9-9-11-11-9--11-11-9--------------------------|
D----------------------------------------------------------------------|
A----------------------------------------------------------------------|
E----------------------------------------------------------------------|


Verse
e----------------------------------------------------------------------|
B----------------------------------------------------------------------|
G------------------7--------------7-7----------------------------------|
D---9--9--9---x-x--7--7--5-5-5-5--7-7--7-7-----------------------------|
A---9--9--9---x-x--5--7--5-5-5-5--5-5--7-7-----------------------------|
E---7--7--7-----------5--3-3-3-3-------5-5-----------------------------|


Pre Chorus
e-------------------------|--------------------------------------------|
B-------------------------|--------------------------------------------|
G-------------------------|--------------------------------------------|
D--5---7---9---12---------|-----5---7---9---12-------------------------|
A--5---7---9---12---------|----5---7---9---12--------------------------|
E--3---5---7---10---------|--3---5---7---10----------------------------|


"and all these things they are obvious to me"

       x2
e----------------|------------------------------------------------------|
B----------------|------------------------------------------------------|
G--12------9-----|------------------------------------------------------|
D----------------|------------------------------------------------------|
A--10------7-----|------------------------------------------------------|
E----------------|------------------------------------------------------|

Chorus

"we are flawless proof we are breaking loose

guitar 1

e----------------------------------------------------------------------|
B----------------------------------------------------------------------|
G----------------------------------------------------------------------|
D---5--7--9--12---5--7--2--9-------------------------------------------|
A---5--7--9--12---5--7--2--9-------------------------------------------|
E---3--5--7--10---3--5--0--7-------------------------------------------|

guitar 2
e----------------------------------------------------------------------|
B----------------------------------------------------------------------|
G-----------------------9---7------------------------------------------|
D----------------------------------------------------------------------|
A-----------------------7---5------------------------------------------|
E----------------------------------------------------------------------|

guitar 1
e----------------------------------------------------------------------|
B----------------------------------------------------------------------|
G----------------------------------------------------------------------|
D---5--7--9--12---5--7--2----9--7--------------------------------------|
A---5--7--9--12---5--7--2----9--7--------------------------------------|
E---3--5--7--10---3--5--0----7--5--------------------------------------|

guitar 2
e----------------------------------------------------------------------|
B----------------------------------------------------------------------|
G-----------------------9--7--6----------------------------------------|
D----------------------------------------------------------------------|
A-----------------------7--5--4----------------------------------------|
E----------------------------------------------------------------------|


breakdown (with some delay effect)

e----------------------------------------------------------------------|
B----------------------------------------------------------------------|
G--------9~----7---12--------------------------------------------------|
D--9-~---7~----7---12--------------------------------------------------|
A--9-~---0-~---5---10--------------------------------------------------|
E--7-~-----------------------------------------------------------------|

e---------------------------------------------------------------------|
B---------------------------------------------------------------------|
G---------------------------------------------------------------------|
D---5--7--9--12---5--7--2----9--7--5----------------------------------|
A---5--7--9--12---5--7--2----9--7--5----------------------------------|
E---3--5--7--10---3--5--0----7--5--3----------------------------------|

guitar 2

e----------------------------------------------------------------------|
B----------------------------------------------------------------------|
G-----------------------9--7--6--4--7----------------------------------|
D----------------------------------------------------------------------|
A-----------------------7--5--4--2--5----------------------------------|
E----------------------------------------------------------------------|


As always, I hope this makes sense.
Cheers.
Tap to rate this tab
 
# A B C D E F G H I J K L M N O P Q R S T U V W X Y Z