Song name
# A B C D E F G H I J K L M N O P Q R S T U V W X Y Z

Knapsack - Arrows To The Action tab

Title: Arrows to the Action
Album: This Conversation is Ending......Starting Right Now
Tabbed by: Kris Johansen - krisjohansen@guitarsrule.com
Tuning: Standard

Lead
e----------------------------------------------------------------------|
B-----------------------5h7--------------------------------------------|
G---------6----6-7p6---------6----------6---6-7p6--4s6s4-6-------------|
D---2h4s7---7--------7------------2h4s7---7-------7--------------------|
A----------------------------------------------------------------------|
E----------------------------------------------------------------------|

e----------------------------------------------------------------------|
B-----------------------5h7--------------------------------------------|
G---------6----6-7p6---------6----------6---6---9p7-6-6h7p6------------|
D---2h4s7---7--------7------------2h4s7---7-----------------7----------|
A----------------------------------------------------------------------|
E----------------------------------------------------------------------|

Verse (not correct rhythm, I just thought it looked prettier this way)

e----------------------------------------------------------------------|
B----------------------------------------------------------------------|
G--------------------5-4-5-4-------------------------------------------|
D------------4-4-4---7-7-7-7--6--6--6--6--7-7-7-7--7-7-7-7---9-9-9-9---|
A--4-4-4-4-4-4-4-4---5-5-5-5--4--4--4--4--5-5-5-5--7-7-7-7---7-7-7-7---|
E--2-2-2-2-2-0-2-2---5-5-5-5-----------------------5-5-5-5---7-7-7-7---|


Chorus (semi-correct rhythm)

e----------------------------------------------------------------------|
B----------------------------------------------------------------------|
G----------------------------------------------------------------------|
D-----------7-7-7-----------------------7-7-7-7-7-11-11-11-11-11-------|
A-4-4-4-4-4-5-5-5-7-7-7-9-9-9-9-9-9-9-9-5-5-5-5-5-9--9--9--9--9--------|
E-2-2-2-2-2-------5-5-5-7-7-7-7-7-7-7-7--------------------------------|

e----------------------------------------------------------------------|
B----------------------------------------------------------------------|
G----------------------------------------------------------------------|
D-----------7-7-7-7-7--------------------------------------------------|
A-7-7-7-7-7-5-5-5-5-5--------------------------------------------------|
E-5-5-5-5-5------------------------------------------------------------|

Break

(-------------x2------)            "I am amazed, how perfectly...(then play rest of 
verse as normal)

e---------------------|------------------------------------------------|
B---------------------|------------------------------------------------|
G---------------------|-----------------------------7-7----------------|
D-11---11---------9---|----11-11-11-11-11-11-11-11--7-7---etc----------|
A-9----8---9---9--9---|----9--9--9--9--9--9--9--9---5-5----------------|
E----------7---6--7---|------------------------------------------------|
Tap to rate this tab
# A B C D E F G H I J K L M N O P Q R S T U V W X Y Z