Song name
# A B C D E F G H I J K L M N O P Q R S T U V W X Y Z

Kneehole - Bypass tab

TUNING:   D,A,D,G,B,E


GUITAR 1
e-------------------------------------------------------
B-------------------------------------------------------
G-------------------------------------------------------
D-----0---0---5--3--2--0--2--3--0--0--------------------
A---7---7-----------------------------------------------
D-------------------------------------------------------
REPEAT X4

GUITAR 1&2 ON HEAVY DISTORTION
e-------------------------------------------------------
B-------------------------------------------------------
G-------------------------------------------------------
D-----7-7--5--3--2--0--2--3--0--------------------------
A-----7-7--5--3--2--0--2--3--0--------------------------
D-----7-7--5--3--2--0--2--3--0--------------------------


BACK TO BEGINNING !
Tap to rate this tab
# A B C D E F G H I J K L M N O P Q R S T U V W X Y Z