Song name
# A B C D E F G H I J K L M N O P Q R S T U V W X Y Z

Knesiat Hasechel - Lemaya Yesh Ekdah tab

                     
title:     lemaya yesh ekdah
Artist:    Knesiat Hasechel
tabbed by: haim bilia

e---------------------------------|-----------------0-0-0-0---------|
b-2-2-2-2---------2-2-2-2---------|-3-3-3-3-2-2-2-2---------3-3-3-3-|
g---------2-2-2-2---------2-2-2-2-|---------------------------------|
d---------------------------------|---------------------------------|
a---------------------------------|---------------------------------|
e---------------------------------|---------------------------------|


e---------------------------------|
b-0-0-0-0-3-3-3-3-----------------|
g-----------------2-2-2-2-2-2-2-2-|
d---------------------------------|
a---------------------------------|
e---------------------------------|

enjoy
*_*
Tap to rate this tab
# A B C D E F G H I J K L M N O P Q R S T U V W X Y Z