Song name
# A B C D E F G H I J K L M N O P Q R S T U V W X Y Z

Knights Of The Abyss - 747 tab

Artist: Knights Of The Abyss
Song: 747


Tabbed By: Mark Webster
AIM: BMarkThorizon89

Tuning: Drop B
(B F# B E G# C#)


/ - SLIDE UP TO          h - HAMMER ON
\ - SLIDE DOWN TO        p - PULL OF
~ - VIBRATO              * - PALM MUTE
" - TREMOLO PICKING     <> - ARTIFICAL HARMONIC


This is just the intro to the song. I'll have the full version up ASAP this week.






-------------------------------------------|
-------------------------------------------|
-------------------------------------------|
-----------0-0-0-------------------0-0-0---|
-----------0-0-0-------------------0-0-0---|
--5-5-8-4--0-0-0--5-5-8-4~-5-5-8-4-0-0-0---|
           * * *                   * * *



----------------------|
----------------------|
----------------------|
----------------------|
--8p5p0-------5h8p6---|
--------5p4h7---------|




-------------------------------------|
-------------------------------------|
-------------------------------------|
-------------------4h7---------------|
--0-0-0-0------3h6-----0-0-----3h6---|    \
--0-0-0-0--4h7---------0-0-4h7-------|     \
  * * * *              * *                  \
                                             
                                            /
                                           /
------------------|                       /
------------------|                      /
------------------|                     /
------------------|--------------------/
-----5"------4"---|
--3"----0-2"------|




------------------|
------------------|
------------------|
------------------|
-----5"------4"---|
--3"----0-2"------|


And that is all i've done for today. Compare this to the other intros...haha!
Tap to rate this tab
 
# A B C D E F G H I J K L M N O P Q R S T U V W X Y Z