Song name
# A B C D E F G H I J K L M N O P Q R S T U V W X Y Z

Knights - Omega tab

-------------------------------------------------------------------------------
                             Omega - Knights
-------------------------------------------------------------------------------
Tabbed by: Nick Longoria
E-mail: info at infugue dot com

Knights Links
Website: http://knightsofficial.com
Facebook: http://facebook.com/knightsofficial
Twitter: http://twitter.com/knightsofficial

Tuning: Standard EADGBE

*All necessary rhythms are not included. Please reference song.
You can listen at http://youtu.be/HREDF0akbjI

Intro Riff
E|--------------------------------------------------------------------------|
B|--------------------------------------------------------------------------|
G|--------------------------------------------------------------------------|
D|--------------------------------------------------------------------------|
A|--------------------------------------------------------------10----------|
E|--0--10--12--10--0--10--12--10--12--0--10--12--10--0--10--12------12--10--|  (x2)


Main Riff
E|------------------------------------------------------------------------------------------|
B|------------------------------------------------------------------------------------------|
G|------------------------------------------------------------------------------------------|
D|------------------------------------------------------------------------------------------|
A|----------------------------------------10------------------------------------------------|
E|--0--3--0--5--6--7--0--0--3--0--10--12------12--0--3--0--5--6--7--0--0--3--0--3--0--3--5--|  (x2)

*Verse is moving harmonics across the strings above the neck pick-up. Will vary per guitar.

Pre-Chorus Riff A (End of verse #1)
E|-----------------------------|
B|-----------------------------|
G|-----------------------------|
D|-----------------------------|
A|-----------------------------|
E|--0--0--3--0--5--0--5--6--7--|


Chorus Riff
E|--------------------------------------------------------------------------------------|
B|--------------------------------------------------------------------------------------|
G|--------------------------------------------------------------------------------------|
D|--------------------------------------------------------------------------------------|
A|-----7-----5--------------------------------------------------------------7--5--------|
E|--0-----0-----0--7--6--5--3--3--0--3--0--3--3--0--3--0--5--5--0--5--0--5--------7--5--|



E|-----------------------------------------------------|
B|-----------------------------------------------------|
G|-----------------------------9--7--5--4--5--7--8--9--|
D|-----------------------------------------------------|
A|-----------------5--5--6--6--7--5--3--2--3--5--6--7--|
E|--7--7--0--7--0--------------------------------------|

*Verse is moving harmonics across the strings above the neck pick-up. Will vary per guitar.

Pre-Chorus Riff B (end of verse #2)
E|--------------------------------------------------------------|
B|--------------------------------------------------------------|
G|--------------------------12--13--14--------------------------|
D|--------------12--13--14--------------12--13--14--------------|
A|--12--13--14--------------------------------------12--13--14--|
E|--------------------------------------------------------------|


Chorus Riff
E|--------------------------------------------------------------------------------------|
B|--------------------------------------------------------------------------------------|
G|--------------------------------------------------------------------------------------|
D|--------------------------------------------------------------------------------------|
A|-----7-----5--------------------------------------------------------------7--5--------|
E|--0-----0-----0--7--6--5--3--3--0--3--0--3--3--0--3--0--5--5--0--5--0--5--------7--5--|



E|-----------------------------------------------------|
B|-----------------------------------------------------|
G|-----------------------------9--7--5--4--5--7--8--9--|
D|-----------------------------------------------------|
A|-----------------5--5--6--6--7--5--3--2--3--5--6--7--|
E|--7--7--0--7--0--------------------------------------|


Post Chorus - Rhythm Guitar
E|--8---8---8---8---8---8---7--|
B|--10--10--10--10--10--10--7--|
G|--10--9---10--9---10--9---8--|
D|--------------------------9--|
A|--------------------------9--|
E|--------------------------7--|


Post Chorus - Lead Guitar
E|------------------------------------------------------------|
B|------------------------------------------------------------|
G|------------------------------------------------------------|
D|--15--------------------------14--------------------13------|
A|------15--12----------12--15----------------------------14--|
E|--------------13--12-----------------(x4)-------------------|

Intro Riff
E|--------------------------------------------------------------------------|
B|--------------------------------------------------------------------------|
G|--------------------------------------------------------------------------|
D|--------------------------------------------------------------------------|
A|--------------------------------------------------------------10----------|
E|--0--10--12--10--0--10--12--10--12--0--10--12--10--0--10--12------12--10--|  (x2)


Main Riff
E|------------------------------------------------------------------------------------------|
B|------------------------------------------------------------------------------------------|
G|------------------------------------------------------------------------------------------|
D|------------------------------------------------------------------------------------------|
A|----------------------------------------10------------------------------------------------|
E|--0--3--0--5--6--7--0--0--3--0--10--12------12--0--3--0--5--6--7--0--0--3--0--3--0--3--5--|  (x2)

Chorus Riff
E|--------------------------------------------------------------------------------------|
B|--------------------------------------------------------------------------------------|
G|--------------------------------------------------------------------------------------|
D|--------------------------------------------------------------------------------------|
A|-----7-----5--------------------------------------------------------------7--5--------|
E|--0-----0-----0--7--6--5--3--3--0--3--0--3--3--0--3--0--5--5--0--5--0--5--------7--5--|



E|-----------------------------------------------------|
B|-----------------------------------------------------|
G|-----------------------------9--7--5--4--5--7--8--9--|
D|-----------------------------------------------------|
A|-----------------5--5--6--6--7--5--3--2--3--5--6--7--|
E|--7--7--0--7--0--------------------------------------|

Post Chorus - Rhythm Guitar
E|--8---8---8---8---8---8---7--|
B|--10--10--10--10--10--10--7--|
G|--10--9---10--9---10--9---8--|
D|--------------------------9--|
A|--------------------------9--|
E|--------------------------7--|


Post Chorus - Lead Guitar
E|------------------------------------------------------------|
B|------------------------------------------------------------|
G|------------------------------------------------------------|
D|--15--------------------------14--------------------13------|
A|------15--12----------12--15----------------------------14--|
E|--------------13--12-----------------(x4)-------------------|


Outro
E|-----------------------------------------------------------------------------------------------|
B|-----------------------------------------------------------------------------------------------|
G|-----------------------------------------------------------------------------------------------|
D|-----------------------------------------------------------------------------------------------|
A|-----------------------------------------------------------------------------------------------|
E|--12--0--11--0--12--0--10--0--12--0--9--0--12--0--8--0--12--0--7--0--12--0--6--0--12--0--5--0--|



E|------------------|
B|------------------|
G|--10--10--10--10--|
D|--10--10--10--10--|
A|--8---8---8---8---|
E|------------------|



E|-----------------------------------------------------------------------------------------------|
B|-----------------------------------------------------------------------------------------------|
G|-----------------------------------------------------------------------------------------------|
D|-----------------------------------------------------------------------------------------------|
A|-----------------------------------------------------------------------------------------------|
E|--12--0--11--0--12--0--10--0--12--0--9--0--12--0--8--0--12--0--7--0--12--0--6--0--12--0--5--0--|



E|--------------------------------------------------------|
B|--------------------------------------------------------|
G|--------------------------------------------------------|
D|--3--3--3--3----2--2----2--2----2--2--------------------|
A|--3--3--3--3----2--2----2--2----2--2------------10------|
E|--1--1--1--1----0--0----0--0----0--0----10--12------12\-|


************************************

| /   slide up
| \   slide down
| h   hammer-on
| p   pull-off
| ~   vibrato
| +   harmonic
| x   Mute note
| b   Bend
| pb  Pre-bend
| br  Bend release
| pbr Pre-bend release
| brb Bend release bend

************************************
Tap to rate this tab
 
# A B C D E F G H I J K L M N O P Q R S T U V W X Y Z