Song name
# A B C D E F G H I J K L M N O P Q R S T U V W X Y Z

Knock Galley West - Undead West tab

-------------------------------------------------------------------------------
			     Undead West by Knock Galley West
-------------------------------------------------------------------------------
Tabbed by: Turpenator

Tuning: Standard (EADGBe)

Intro

e|---------------------------------------------------------------------------|
B|---------------------------------------------------------------------------|
G|---------------------------------------------------------------------------|
D|-------------7-7-7-6-6-6------------------------------------7-7-7----------| 
A|-9---9---9---5-5-5-4-4-4--9-9-9-5-4--9-9-9-5-4-2--9-9-9-5-4-5-5-5-7-7-7----|
E|-7---7---7----------------7-7-7-3-2--7-7-7-3-2-0--7-7-7-3-2-------5-5-5----|

e|--------------------------------------------------|
B|--------------------------------------------------|
D|-----------------------------------7-7-7----------| 
A|-9-9-9-5-4--9-9-9-5-4-2--9-9-9-5-4-5-5-5-7-7-7----|
E|-7-7-7-3-2--7-7-7-3-2-0--7-7-7-3-2-------5-5-5----|

Verse 1

e|-----------------------------------------------------------------------------|
B|-----------------------------------------------------------------------------|
G|-----------------------------------------------------------------------------|
D|-------------7-7-11-11-11-11-11-11-12-11-9-9-9-9-9-9-12-12-11-11-11-11-11-11-| 2X
A|-9-9-9-9-9-9-5-5-9--9--9--9--9--9--10-9--7-7-7-7-7-7-10-10-9--9--9--9--9--9--|
E|-7-7-7-7-7-7-----------------------------------------------------------------|


Chorus 1

e|---------------------------------------------------------------------------|
B|---------------------------------------------------------------------------|
G|---------------------------------------------------------------------------|
D|-7-7-7-7-7-7-7-7-----------------------------------------------------------| 2X
A|-5-5-5-5-5-5-5-5-9-9-9-9-9-9-9-9-7-7-7-7-7-7-7-7-4-4-4-4-4-4-4-4-----------|
E|-----------------7-7-7-7-7-7-7-7-5-5-5-5-5-5-5-5-2-2-2-2-2-2-2-2-----------|

e|---------------------------------------------------------------------------|
B|---------------------------------------------------------------------------|
G|---------------------------------------------------------------------------|
D|---------------------------------------------------------------------------|
A|-9-9-9-9-9-9-9-9-9---9-9-9-9-9-9-9-9-12---7-7-7----------------------------|
E|-7-7-7-7-7-7-7-7-7---7-7-7-7-7-7-7-7-10---5-5-5----------------------------|

Verse 2

e|-----------------------------------------------------------------------------|
B|-----------------------------------------------------------------------------|
G|-----------------------------------------------------------------------------|
D|-------------7-7-11-11-11-11-11-11-12-11-9-9-9-9-9-9-12-12-11-11-11-11-11-11-| 2X
A|-9-9-9-9-9-9-5-5-9--9--9--9--9--9--10-9--7-7-7-7-7-7-10-10-9--9--9--9--9--9--|
E|-7-7-7-7-7-7-----------------------------------------------------------------|

Chorus 2

e|---------------------------------------------------------------------------|
B|---------------------------------------------------------------------------|
G|---------------------------------------------------------------------------|
D|-7-7-7-7-7-7-7-7-----------------------------------------------------------| 2X
A|-5-5-5-5-5-5-5-5-9-9-9-9-9-9-9-9-7-7-7-7-7-7-7-7-4-4-4-4-4-4-4-4-----------|
E|-----------------7-7-7-7-7-7-7-7-5-5-5-5-5-5-5-5-2-2-2-2-2-2-2-2-----------|



Solo

e|---------------------------------------------------------------------------|
B|---------------------------------------------------------------------------|
G|---------------------------------------------------------------------------|
D|---------------------------------------------------------------------------|
A|-------5-4-----------5-4-------------5-7-5---------4-5-4---------10-9-7----|
E|-7-7-7-----7-5-5-5-5-----7-5-3-3-3-3-------5-2-2-2-------5-7-7-7--------10-|

e|--------------------------------------------------------------------------------|
B|--------------------------------------------------------------------------------|
G|--------------------------------------------------------------------------------|
D|--------------------------------------------------------------------------------|
A|-------10-9-7----------5-7-5---------5-4-2--------------------------------------|
E|-5-5-5--------10-3-3-3-------5-2-2-2-------5--7-7-9-9-10-10-9-7-5-5-10-10-9-9-7-|

e|--------------------------------------------------------------------------|
B|--------------------------------------------------------------------------|
G|--------------------------------------------------------------------------|
D|--------------------------------------------------------------------------|
A|-------5-5-7-7-5-------5-5-4-4-2--------10-10-9-9-7--------10-10-9-9-7----|
E|-5-3-3-----------5-2-2-----------5--7-7-------------10-5-5-------------10-|

e|---------------------------------------------------------------------------|
B|---------------------------------------------------------------------------|
G|---------------------------------------------------------------------------|
D|---------------------------------------------------------------------------|
A|-----5-5-7-7-5-------5-5-4-4-2---------------------------------------------|
E|-3-3-----------5-2-2-----------5-------------------------------------------|

Ending

e|---------------------------------------------------------|
B|---------------------------------------------------------|
G|---------------------------------------------------------| 
D|--------------7--7-7--7-7--9--9-9--9-9--11--11-11--11-11-| 4X
A|-9--9-9--9-9--5--5-5--5-5--7--7-7--7-7--9---9--9---9--9--|
E|-7--7-7--7-7---------------------------------------------|

e|---|
B|---|
G|---|
D|---|
A|-9-|
E|-7-|



Band's page
http://www.myspace.com/knockgalleywest

Tap to rate this tab
# A B C D E F G H I J K L M N O P Q R S T U V W X Y Z