Song name
# A B C D E F G H I J K L M N O P Q R S T U V W X Y Z

Knopfler Mark - Princess Bride Theme Song tab

#----------------------------------PLEASE NOTE---------------------------------# 
#This file is the author's own work and represents their interpretation of the  # 
#song. You may only use this file for private study, scholarship, or research. # 
#-------------------------------------------------------------------------------------# 
From: The Princess Bride Soundtrack 
Subject:Princess Bride Theme 
Original Score by:Mark Knopfler 
Tabbed by :Javod Khalaj  
  
E|---------------------------------------------------------------------| 
B|--5--5--5-------6--6--6--6h8--5---------------5--3--5--1--3----------| 
G|-------------5----------------------(0)------(0)---------------------| 
D|---------------------------------------------------------------------| 
A|---------------------------------------------------------------------| 
E|---------------------------------------------------------------------| 

               arpeggiate these 2 
E|-------------------0--0---------------------------------------| 
B|--3--5-3-1---------5--5-------6--6--6h8--5--------5--3--5-----| 
G|-------------------0--0---5----------------------(0)----------| 
D|-------------------5--5---------------------------------------| 
A|--------------------------------------------------------------| 
E|--------------------------------------------------------------| 
  

E|------------------5--5--5-------6--6--6--6p5-------------5-----5---| 
B|--1--3----1--1---------------6---------------5h6------------6------| 
G|----------------------------------------------------(5)------------| 
D|-------------------------------------------------------------------| 
A|-------------------------------------------------------------------| 
E|-------------------------------------------------------------------| 
  

E|--5-----3--3--5--5-------5--5-------6--6--6--6-5-------3----------| 
B|-----6------------------------------6--6--6--6------6-------3--3--| 
G|--------------------(5)--5--5-------------------------------------| 
D|------------------------------------------------------------------| 
A|------------------------------------------------------------------| 
E|------------------------------------------------------------------| 
  

E|--3--5--0--0----------------------------------------------------------| 
B|----------------7-----7-------8--8----8/10-7--------7--7--------------| 
G|-------------------7-------7--------------------------------7--9--9---| 
D|---------------------------------------------------(7)----------------| 
A|----------------------------------------------------------------------| 
E|----------------------------------------------------------------------| 
  

E|----------------------------------------------------------------------| 
B|---------------7--7--7-----8--8--7---------7-----7--------------------| 
G|-11--9--7----7--7--7--7-----------------------7-------7--9----7--7----| 
D|------------------------------------------(7)-------------------------| 
A|----------------------------------------------------------------------| 
E|----------------------------------------------------------------------| 
  

E|--7-----7------8--8--8--7-5-----------7--5--7--7-------5----7--7---| 
B|--8--8--8--8-----------------8----------------------8--------------| 
G|-------------------------------------(7)---------------------------| 
D|-------------------------------------------------------------------| 
A|-------------------------------------------------------------------| 
E|-------------------------------------------------------------------| 
  

E|--7--7--7--7-------8--8--8--8--7-5-------------------------------------| 
B|----------------8---------------------8---------7-----7--7-----8--8----| 
G|----------------------------------------------------7--------7---------| 
D|----------------------------------------(7)----------------------------| 
A|-----------------------------------------------------------------------| 
E|-----------------------------------------------------------------------| 
  

E|----------------------------------------------------------------------| 
B|-8--8/10-7----7--7--7--7----7--5-------5---------3--------------------| 
G|----------------------------------------------------------------------| 
D|----------------------------------------------------------------------| 
A|----------------------------------------------------------------------| 
E|----------------------------------------------------------------------| 

Any questions, comments, or corrections? E-mail: kngtaco@yahoo.com
Tap to rate this tab
 
# A B C D E F G H I J K L M N O P Q R S T U V W X Y Z