Song name
# A B C D E F G H I J K L M N O P Q R S T U V W X Y Z

Knorkator - Es Kotzt Mich An tab

 INTRO
   ---------------------------------------------------------|
   ---------------------------------------------------------|
   ---------------------------------------------------------|
   ---------------------------------------------------------|
   2-2-3-2-2-3-2-2-2-3-2-2-3-2-2-2-3-2-2-3-2-2-2-3----------|
   2-2-3-2-2-3-2-2-2-3-2-2-3-2-2-2-3-2-2-3-2-2-2-3-2-3-4-5--|
P.M      . .           . .           . .

VERSE PART 1
------------------------------------------------------|
------------------------------------------------------|
------------------------------------------------------|
------------------------------------------------------|
2-2-3----2-2-3--------------2-2-3----2-2-3------------|
2-2-3----2-2-3-----2-3-4-5--2-2-3----2-2-3-2-3-4-5----|

VERSE PART 2
   ---------------------------------------------------------|
   ---------------------------------------------------------|
   ---------------------------------------------------------|
   ---------------------------------------------------------|
   7-7-8-7-7-8-7-7-7-8-7-7-8-7-7-7-8-7-7-8-7-7-7-8----------|
   7-7-8-7-7-8-7-7-7-8-7-7-8-7-7-7-8-7-7-8-7-7-7-8-7-8-9-10-|
P.M      . .           . .           . .

CHORUS
-----------------------------------------------------|
-----------------------------------------------------|
-----------------------------------------------------|
-----------------------------------------------------|
9-9-10-9-9-10-9-9-10-9-8-7-6-------------------------|
9-9-10-9-9-10-9-9-10-9-8-7-6-------------------------|
Tap to rate this tab
# A B C D E F G H I J K L M N O P Q R S T U V W X Y Z