Song name
# A B C D E F G H I J K L M N O P Q R S T U V W X Y Z

Knorkator - Ich Lass Mich Klonen tab

E-tuning

Keyboard Intro

-----------------------------------------------------------|
-----------------------------------------------------------|
-----------------------------------------------------------|
-----------------------------------------------------------|
0---0---0--0--0-0-1-1--------------------------------------|
-----------------------------------------------------------|


Intro/verse
-----------------------------------------------------------|
-----------------------------------------------------------|
-----------------------------------------------------------|
-----------------------------------------------------------|
7---7---7--7--7-7-8-8--------------------------------------|
5---5---5--5--5-5-6-6--------------------------------------|

Refrain

-----------------------------------------------------------|
-----------------------------------------------------------|
-----------------------------------------------------------|
-----------------------------------------------------------|
7-7-7-8-8-8-7-7-7-5-5-5-5-8--------------------------------|
5-5-5-6-6-6-5-5-5-3-3-3-3-6--------------------------------|

Hier muss man nur noch den richtigen rhytmus finden

5             6          5         3     6
ich lass mich klonen ich lass mich klonen

so ungefaehr muesste es richtig sein

so das solo konnte ich leider nicht raustabben
hoffe aba das es so erstmal reicht
Tap to rate this tab
 
# A B C D E F G H I J K L M N O P Q R S T U V W X Y Z