Song name
# A B C D E F G H I J K L M N O P Q R S T U V W X Y Z

Knorkator - Konflikt tab

-----------------------------------------------------|
-----------------------------------------------------|
-----------------------------------------------------|
----------7-----------10-----------------------------|
----7-5-5-5-----9-8-8--8-----------------------------|
5-5-5-------7-7-7------------------------------------|
. .   . .   . .   . .
P.m

nach ähh
-----------------------------------------------------|
-----------------------------------------------------|
-----------------------------------------------------|
-----------10----------------13----------------------|
----10-8-8--8-------12-11-11-11----------------------|
8-8--8--------10-10-10-------------------------------|
. .    . .     .  .     .  .

viel spaß!!!
Tap to rate this tab
 
# A B C D E F G H I J K L M N O P Q R S T U V W X Y Z