Song name
# A B C D E F G H I J K L M N O P Q R S T U V W X Y Z

Knorkator - Ey Du Alte Ficksau tab

Intro
----------------------------------------------------------------|
----------------------------------------------------------------|
----------------------------------------------------------------|
----------------------------------------------------------------|
7-7-7-7-7-7-7-7-7-7-7-7-7-7-7-7-7-7-7-7-7-7-7-7-5-5-5-5-8-8-8-8-|
----------------------------------------------------------------|

Refrain
--------------------------------------------------------------------|
--------------------------------------------------------------------|
--------------------------------------------------------------------|
9-9-9-9-9-9-9-9-9-9-9-9-9-9-9-9-9-9-9-9-9-9-9-9-7-7-7-7-10-10-10-10-|
7-7-7-7-7-7-7-7-7-7-7-7-7-7-7-7-7-7-7-7-7-7-7-7-5-5-5-5--8--8--8--8-|  X3
--------------------------------------------------------------------|

dann
---------------------------------------------------------------------|
---------------------------------------------------------------------|
---------------------------------------------------------------------|
9-9-9-9-9-9-9-9-9-9-9-9-9-9-9-9-9-9-9-9-9-9-9-9-9-9-9-9-9-10-10-10---|
7-7-7-7-7-7-7-7-7-7-7-7-7-7-7-7-7-7-7-7-7-7-7-7-7-7-7-7-7--8--8--8---|
---------------------------------------------------------------------|



Verse Riff
--------------------------------------------------------------|
--------------------------------------------------------------|
--------------------------------------------------------------|
----------3--3------------------------------------------------|
2-2-2-2-2-1--1------------------------------------------------|
0-0-0-0-0-----------------------------------------------------|
. . . . .
P.m

brigde zum refrain
------------------------|
------------------------|
------------------------|
------------------------|
5-4-3-------------------|
3-2-1-------------------|

das wärs...
Tap to rate this tab
 
# A B C D E F G H I J K L M N O P Q R S T U V W X Y Z