Song name
# A B C D E F G H I J K L M N O P Q R S T U V W X Y Z

Knorrig - Competitive Blues tab

COMPETITIVE BLUES-kNoRRiG


GUITAR 
E--------------------------------- 
B--6--6b8-----6-6b8---------------     X8  heavy=Bb-C 
G--7--7b9-----7-7b9--------------- 
D--------------------------------- 
A--------------------------------- 
E--------------------------------- 

TRUMPET/2ND GUITAR

E--8--11-8------------------------ 
B---------11-8----8--------------- 
G------------------10-8-10-------- 
D--------------------------8------ 
A--------------------------------- 
E--------------------------------- 


BASS

G----------------------------------------0-3-5-0---- 
D------1-3b4b3-1-3-1-3--------1-3b4b3-1------------- 
A--1-3-----------------3--1-3----------------------- 
E--------------------------------------------------- 

LYRICS 

You came I conquered then you left 
I left you to a fate worse than death 
I hate to win 'cause you hate to lose 
Now you've got a bad case of competitive blues 

Tap to rate this tab
 
# A B C D E F G H I J K L M N O P Q R S T U V W X Y Z