Song name
# A B C D E F G H I J K L M N O P Q R S T U V W X Y Z

Ko - Capable tab

-----------------------------------------------------------------------------
			       Capable - KO
-----------------------------------------------------------------------------
Tabbed by: Frazer Constable
Email: frzr@live.ca

Tuning: Standard

http://wmm.warnermusic.ca/ko/download_capable.html

Awesome song by another talented Canadian artist, Ko switches up the notes
quite a bit but it all generally follows the same rythm, so enjoi! :)

Intro:
e|-------------------------------------------------------|
B|-------------------------------------------------------|
G|--------------------0~-----/4/5/7~---------------------|
D|--0-2-2-x-x-0-0-------0-2-2-------0-2-2-x-x-x-0-----0~-|
A|----------------0h2-----------------------------0h2----|
E|-------------------------------------------------------|

e|------------------------------------------------------|
B|------------------------------------------------------|
G|-----2/4-2-0-2-2-0----------------/4/5/7~-----/4/5/7~-|
D|-0-2---------------4-4h5p4-0~0-2-2-------0-2-2--------|
A|------------------------------------------------------|
E|------------------------------------------------------|

Verse: Part one (Repeat 9 times)
e|----------------------|
B|----------------------|
G|----------------------|
D|-0-2-2-x-x-x-0-----0~-|
A|---------------0h2----|
E|----------------------|

Verse: Part two (Repeat Once)
e|-------------------------------------------------------------------|
B|-------------------------------------------------------------------|
G|-------------2h4-2~4h5-5-4h5p4-2-2h4-4-2h4p2-0-0h2-2-0h2p0---------|
D|-0-2-2-x-x-------------------------------------------------0-2-2-2/|
A|-----------0-------------------------------------------------------|
E|-------------------------------------------------------------------|

Chorus: (Repeat 12 times)
e|---------------------|
B|---------------------|
G|---------------------|
D|-0-2-2-x-x-x-0-----0~|
A|---------------0h2---|
E|---------------------|

Interlude:
e|-------------------------------------------------------|
B|-------------------------------------------------------|
G|---------------------------/4/5/7~---------------------|
D|-0-2-2-x-x-x-0-----0~-0-2-2-------0-2-2-x-x-x-0-----0~-|
A|---------------0h2------------------------------0h2----|
E|-------------------------------------------------------|

e|-----------------------------|
B|-----------------------------|
G|-----2/4-2-2-2-2-4~2-2h4p2p0-|
D|-0-2-------------------------|
A|-----------------------------|
E|-----------------------------|

Repeat Verse and Chorus 2 times and then finish

Any questions, comments, corrections, feel free to e-mail me
(and don't be afraid to rate this tab)! Hope you liked it. :)

- Fraze.

| /  slide up
| \  slide down
| h  hammer-on
| p  pull-off
| ~  let ring
| +  harmonic
| x  Mute note
=============================================================================
Tap to rate this tab
 
# A B C D E F G H I J K L M N O P Q R S T U V W X Y Z