Song name
# A B C D E F G H I J K L M N O P Q R S T U V W X Y Z

Kodaline - The Answer tab

INTRO:
--------------------------------------------------------|
-----3-----3-----3-----3-----3-----3-----3-----3-----3--|
-----0-----0-----0-----0-----0-----0-----0-----0-----0--|
--------------------------------------------------------|
--------------------------------------------------------|
---3-----3-----3-----3-----3-----3-----3-----3----------|

Verse:
Watch your step or you might fall...
--------------------------------------------------------|
-----3-----3-----3-----3-----3-----3-----3-----3-----3--|
-----0-----0-----0-----0-----0-----0-----0-----0-----0--|
--------------------------------------------------------|
--------------------------------------------------------|
---3-----3-----3-----3-----3-----3-----3-----3-----2----|

You act like you're a know-it-all...
--------------------------------------------------------|
-----3-----3-----3-----3-----3-----3-----3-----3-----3--|
-----0-----0-----0-----0-----0-----0-----0-----0-----0--|
--------------------------------------------------------|
---------------------------------------------------0----|
---0-----0-----0-----0-----0-----0-----0-----0----------|

Yeah I used to do that...
--------------------------|
-----3-----3-----3-----3--|
-----0-----0-----0-----0--|
--------------------------|
--3-----3-----3-----3-----|
--------------------------|

I used to be like that...
--------------------------|
-----3-----3-----3-----3--|
-----0-----0-----0-----0--|
--------------------------|
--5-----5-----5-----5-----|
--------------------------|

Still feel a bit like that...
--------------------------------------------------------|
-----3-----3-----3-----3-----3-----3-----3-----3-----3--|
-----0-----0-----0-----0-----0-----0-----0-----0-----0--|
--------------------------------------------------------|
--------------------------------------------------------|
---3-----3-----3-----3-----3-----3-----3-----3----------|

REPEAT VERSE
You might think you found the one
Until your heart gets ripped and torn
Yeah I used to feel bad, I used to feel like that, still feel a bit like that

CHORUS:
But I'm not searching for...
----------------------------------------------------|
-----3-----3-----3-----3-----3-----3-----3-----3----|
-----0-----0-----0-----0-----0-----0-----0-----0----|
----------------------------------------------------|
--3-----3-----3-----3-----5-----5-----5-----5-------|
----------------------------------------------------|

the answer...
----------------------------------------------------|
----3-----3-----3-----3-----3-----3-----3-----3-----|
----0-----0-----0-----0-----0-----0-----0-----0-----|
----------------------------------------------------|
----------------------------------------------------|
--3-----3-----3-----3-----3-----3-----3-----3-------|

I'm not looking for the truth
I'm just talking through a speaker
Because that's all that I have ever learned to do

REPEAT VERSE X2
Use your mind and make it talk
'Cause in this world it's all you've got
And we all fall down from the highest clouds to the lowest ground

Loneliness is worst of all
When you got no one else to call
Feeling kind of sad when the times are bad, the times are getting bad

CHORUS

BRIDGE (SAME AS CHORUS)
What about you, what about you, what about you
What about you, what about you, what about you
What about you, what about you

OUTRO (SAME AS VERSE):
So watch your step or you might fall
You act like you're a know-it-all
Yeah I used to do that, I used to be like that, I'm still a bit like that
Tap to rate this tab
 
# A B C D E F G H I J K L M N O P Q R S T U V W X Y Z