Song name
# A B C D E F G H I J K L M N O P Q R S T U V W X Y Z

Kodaline - After The Fall tab

Artist: Kodaline
Song: After The Fall
Album: In A Perfect World
Tuning: Standard

Intro

Lead Guitar

e |-------------------------------------------------------------|
B |-----11--13--9-9---9----9--8-----11---13--9---9---9--11------|
G |-----------------8----8---------------------8---8------------|
D |-------------------------------------------------------------|
A |-------------------------------------------------------------|
E |--11-------------------------11------------------------------|


Rhythm

e |--x-----x----x----------|
B |--x-----x----x----------|
G |--8-----5----x----------|
D |--8-----5----6----------|
A |--6-----3----6----------|
E |--x-----x----4----------|

Verse 1

Lead Guitar

e |-------------------------------------------------------------|
B |-----11--13--9-9---9----9--8-----11---13--9---9---9--11------|
G |-----------------8----8---------------------8---8------------|
D |-------------------------------------------------------------|
A |-------------------------------------------------------------|
E |--11-------------------------11------------------------------|


Rhythm

e |--x-----x----x----------|
B |--x-----x----x----------|
G |--8-----5----x----------|
D |--8-----5----6----------|
A |--6-----3----6----------|
E |--x-----x----4----------|

People keep talking
But I can't hear what I want to say
Life just keeps moving
The world gets stranger everyday

Chorus

e |--x-----x----x----------|
B |--x-----x----x----------|
G |--8-----5----x----------|
D |--8-----5----6----------|
A |--6-----3----6----------|
E |--x-----x----4----------|

But now time is on your side
That's what people will tell you
But I got to let you go
My head is saying that this is for the better
I just want you to know
I can't hold on forever
When all the tears can go
All the tears can go

Verse 2

Shadows are screaming
But I can't hear a single sound
And I'm feeling uneasy
And I'm waiting away for a change to come around

Chorus

Bridge

e |--x-----x----x----------|
B |--x-----x----x----------|
G |--8-----5----x----------|
D |--8-----5----6----------|
A |--6-----3----6----------|
E |--x-----x----4----------|


Chorus

Outro

e |----------------------------------------------------------x---|
B |-----11--13--9-9---9----9--8-----11---13--9---9---9--11---x---|
G |-----------------8----8---------------------8---8---------8---|
D |----------------------------------------------------------8---|
A |----------------------------------------------------------6---|
E |--11-------------------------11---------------------------x---|
Tap to rate this tab
# A B C D E F G H I J K L M N O P Q R S T U V W X Y Z