Song name
# A B C D E F G H I J K L M N O P Q R S T U V W X Y Z

Koffin Kats - Chainsaw Massacre tab

OK seeing how nobody wants to Tab this damn song i thought I'd give it a shot. Im not 
cause i did this by ear but, it's better than nothing. So good luck and figure out the 
on your own ( SOLO NOT INCLUDED)
. once again good luck. If You have questions E-Mail Me. Disturbmetal@Yahoo.com
---------------------------------------Standard Tuning.
►=Slide
Intro.
E-10---10---9---8---8---8---8---8---8~----------|
B-10---10---9---8---8---9---8---9---8~----------|
G-----------------9-----------------------------|
D-----------------------------------------------|
A-----------------------------------------------|
E--------------------------------------12►-|

Riff .
E-----------------------------------------|
B-----------------------------------------|
G-----------8----7------------------------|
D-5----8----8----7------------------------|
A-5----8----6----5------------------------|
E-3----6----------------------------------|

Chorus Intro.
E-----------------------------------------|
B-----------------------------------------|
G-----------------------------------------|
D-5----4----3----4----5--5--5-------------|
A-5----4----3----4----5--5--5-------------|
E-3----2----1----2----3--3--3-------------|

Chorus.
E--------------------------------------------------------|
B--------------------------------------------------------|
G--------------------------------------------------------|
D-10----7----2--5--2--5--2--5--2--5--------10----7----9~-|
A-10----7----2--5--2--5--2--5--2--5--------10----7----9~-|
E-8-----5----0--3--0--3--0--3--0--3--------8-----5----7~-|

E-------------------------------------------------------|
B-------------------------------------------------------|
G-------------------------------------------------------|
D-9---7---5---4-----------------------------------------|
A-9---7---5---4-----------------------------------------|
E-7---5---3---2-----------------------------------------|

Back To Riff
Riff 1.
E-----------------------------------------|
B-----------------------------------------|
G-----------8----7------------------------|
D-5----8----8----7------------------------|
A-5----8----6----5------------------------|
E-3----6----------------------------------|

So there you go.Enjoy.
Tap to rate this tab
# A B C D E F G H I J K L M N O P Q R S T U V W X Y Z