Song name
# A B C D E F G H I J K L M N O P Q R S T U V W X Y Z

Koffin Kats - Vampires Curse tab

-------------------------------------------------------------------------------
                             Vampires Curse
-------------------------------------------------------------------------------
                           By: The Koffin Kats
tabbed by:ascarymovie@gmail.com
tuning:standard
(its standard but i think i might have tuned my guitar a half a step down)
so make sure to check up on that :)
b=bend
\=slide down
/=slide up
~=let the note ring
(also includes lyrics)
(1 being the highest pitched string, 6 being the lowest string)
Intro-
6|-7b----------------------------------------------------------------------|
5|-9b-----7----------10--10-10-12-10-9--7----------------------------------|
4|-9b--9b----9---10-9----------------------9---10-9------------10-9--------|
3|-------------7-----------------------------7------7--7-7-7-7------10-----|
2|-------------------------------------------------------------------------|
1|-------------------------------------------------------------------------|

Verse-
6|-----------------------------------------------------------------------|
5|-7------------------------------7-7\3-----3-3/5------------------------|
4|-9------------------------------9-9\5-----5-5/7------------------------|
3|-9------------------------------9-9\5-----5-5/7------------------------|
2|-----------------------------------------------------------------------|
1|-----------------------------------------------------------------------|
   sitting here, lonely tomb how many years have i been so doomed?
6|-----------------------------------------------------------------------|
5|---7----------------------------7-7\3-------3-3/5----------------------|
4|---9----------------------------9-9\5-------5-5/7----------------------|
3|---9----------------------------9-9\5-------5-5/7----------------------|
2|-----------------------------------------------------------------------|
1|-----------------------------------------------------------------------|
  no use to think its been so long   centuries have come and gone

(spacing may look strange but that's only because i tried to match it with the 
lyrics but still correct)
Pre-chorus-
6|-----------------------------------------------------------------------|
5|----7----7----7----7----7----7----7----7----3----3----3----3----5----5-|
4|----9----9----9----9----9----9----9----9----5----5----5----5----7----7-|
3|----9----9----9----9----9----9----9----9----5----5----5----5----7----7-|
2|-----------------------------------------------------------------------|
1|-----------------------------------------------------------------------|
  yet i still wait here for something more to give me back a thrill
6|-----------------------------------------------------------------------|
5|-5---5---7----7----7----7----7----7----7---7---3---3---3---3----5---5--|
4|-7---7---9----9----9----9----9----9----9---9---5---5---5---5----7---7--|
3|-7---7---9----9----9----9----9----9----9---9---5---5---5---5----7---7--|
2|-----------------------------------------------------------------------|
1|-----------------------------------------------------------------------|
          pointless to think of a purpose here if only i could kill

          Chorus-
6|-------|---------------------------------------------------------------|
5|-5---5-|-9--9--9--9--3--3--3--3--7-7-7-7--7\5\3\2----------------------|
4|-7---7-|-7--7--7--7--5--5--5--5--9-9-9-9--9\7\5\4----------------------|
3|-7---7-|-7--7--7--7--5--5--5--5--9-9-9-9--9\7\5\4----------------------|
2|-------|---------------------------------------------------------------|
1|-------|---------------------------------------------------------------|
           Never thought life could be so cold
6|-----------------------------------------------------------------------|
5|-9--9--9--9--3--3--3--3--7-7-7-7--7\5\3\2------------------------------|
4|-7--7--7--7--5--5--5--5--9-9-9-9--9\7\5\4------------------------------|
3|-7--7--7--7--5--5--5--5--9-9-9-9--9\7\5\4------------------------------|
2|-----------------------------------------------------------------------|
1|-----------------------------------------------------------------------|
   once i was a king now im alone
6|-----------------------------------------------------------------------|
5|--9--9--9--9--3--3--3--3--7-7-7-7--7\5\3\2-----------------------------|
4|--7--7--7--7--5--5--5--5--9-9-9-9--9\7\5\4-----------------------------|
3|--7--7--7--7--5--5--5--5--9-9-9-9--9\7\5\4-----------------------------|
2|-----------------------------------------------------------------------|
1|-----------------------------------------------------------------------|
  So here's to the lonely hearts cause mine is beating still
6|-----------------------------------------------------------------------|
5|--9~--------3~-----------9-9-9-9-9-9-9-9-------------------------------|
4|--7~--------5~-----------7-7-7-7-7-7-7-7-------------------------------|
3|--7~--------5~-----------7-7-7-7-7-7-7-7-------------------------------|
2|-----------------------------------------------------------------------|
1|-----------------------------------------------------------------------|
    will this curse ever end?

6|-----------------------------------------------------------------------|
5|--7----------10--10-10-12-10-9--7--------------------------------------|
4|----9---10-9----------------------9---10-9------------10-9-------------|
3|------7-----------------------------7------7--7-7-7-7------10----------|
2|-----------------------------------------------------------------------|
1|-----------------------------------------------------------------------|

verse#2-repeat first verse
pre chorus#2-repeat first pre chorus
chorus#2-repeat first chorus

solo- (this is where i had the hardest time) (may not be correct but it was
the closest i could get)
6|------------------------------------------------------------------------|
5|-7----------10-10-9-7--7------------------------------------------------|
4|---9---10-9--------------9---10-9-------------10-9--9-10---10-9-10---10-|
3|-----7---------------------7------7--7-7-7-7-------------7---------7----|
2|------------------------------------------------------------------------|
1|------------------------------------------------------------------------|

6|----------------------------------------------------------------------------|
5|----------------------------------------------------------------------------|
4|-9-10---10--10-9--9-10---10-------10---10-----10-9-10-----10p9-9------------|
3|------7----7-----------7----7-9-7----7----9-7---------9p7--------10-10-10-10|
2|----------------------------------------------------------------------------|
1|----------------------------------------------------------------------------|
the rest of the solo was to hard for me

Verse#3-
6|------------------------------------------------------------------------|
5|--7~-----------------------------3~--------------5~---------------------|
4|--9~-----------------------------5~--------------7~---------------------|
3|--9~-----------------------------5~--------------7~---------------------|
2|------------------------------------------------------------------------|
1|------------------------------------------------------------------------|
    sleep the day stalk the night, drink the blood fear the light

6|------------------------------------------------------------------------|
5|-7~------------------------3~-------------5~----------------------------|
4|-9~------------------------5~-------------7~----------------------------|
3|-9~------------------------5~-------------7~----------------------------|
2|------------------------------------------------------------------------|
1|------------------------------------------------------------------------|
   kill again, hate my ways, kill myself so hard to say
6|-----------------------------------------------------------------------|
5|----7----7----7----7----7----7----7----7----3----3----3----3----5----5-|
4|----9----9----9----9----9----9----9----9----5----5----5----5----7----7-|
3|----9----9----9----9----9----9----9----9----5----5----5----5----7----7-|
2|-----------------------------------------------------------------------|
1|-----------------------------------------------------------------------|

   So Ill go on rotting on through the years Until this curse is done
6|-----------------------------------------------------------------------|
5|-5---5---7----7----7----7----7----7----7---7---3---3---3---3----5---5--|
4|-7---7---9----9----9----9----9----9----9---9---5---5---5---5----7---7--|
3|-7---7---9----9----9----9----9----9----9---9---5---5---5---5----7---7--|
2|-----------------------------------------------------------------------|
1|-----------------------------------------------------------------------|
      Or maybe Ill someday had enough and step beneath the sun
 Chorus-
6|-------|---------------------------------------------------------------|
5|-5---5-|-9--9--9--9--3--3--3--3--7-7-7-7--7\5\3\2----------------------|
4|-7---7-|-7--7--7--7--5--5--5--5--9-9-9-9--9\7\5\4----------------------|
3|-7---7-|-7--7--7--7--5--5--5--5--9-9-9-9--9\7\5\4----------------------|
2|-------|---------------------------------------------------------------|
1|-------|---------------------------------------------------------------|
           Never thought life could be so cold
6|-----------------------------------------------------------------------|
5|-9--9--9--9--3--3--3--3--7-7-7-7--7\5\3\2------------------------------|
4|-7--7--7--7--5--5--5--5--9-9-9-9--9\7\5\4------------------------------|
3|-7--7--7--7--5--5--5--5--9-9-9-9--9\7\5\4------------------------------|
2|-----------------------------------------------------------------------|
1|-----------------------------------------------------------------------|
   once i was a king now im alone
6|-----------------------------------------------------------------------|
5|--9--9--9--9--3--3--3--3--7-7-7-7--7\5\3\2-----------------------------|
4|--7--7--7--7--5--5--5--5--9-9-9-9--9\7\5\4-----------------------------|
3|--7--7--7--7--5--5--5--5--9-9-9-9--9\7\5\4-----------------------------|
2|-----------------------------------------------------------------------|
1|-----------------------------------------------------------------------|
  So here's to the lonely hearts cause mine is beating still
6|-----------------------------------------------------------------------|
5|--9~--------3~-----------9-9-9-9-9-9-9-9-------------------------------|
4|--7~--------5~-----------7-7-7-7-7-7-7-7-------------------------------|
3|--7~--------5~-----------7-7-7-7-7-7-7-7-------------------------------|
2|-----------------------------------------------------------------------|
1|-----------------------------------------------------------------------|
    will this curse ever end?
6|-----------------------------------------------------------------------|
5|-9--9--9--9--3--3--3--3--9-9-9-9-9-9-9---------------------------------|
4|-7--7--7--7--5--5--5--5--7-7-7-7-7-7-7---------------------------------|
3|-7--7--7--7--5--5--5--5--7-7-7-7-7-7-7---------------------------------|
2|-----------------------------------------------------------------------|
1|-----------------------------------------------------------------------|
play a total of 3 times

6|------------------------------------------------------------|
5|-9~-----3~------9~---7~-------------------------------------|
4|-7~-----5~------7~-------9~---------------------------------|
3|-7~-----5~------7~-------9~---------------------------------|
2|------------------------------------------------------------|
1|------------------------------------------------------------|

ok well you cant say i didnt try the solo was too much for me and this is my first tab 
any problems please feel free to comment :)
Tap to rate this tab
 
# A B C D E F G H I J K L M N O P Q R S T U V W X Y Z