Song name
# A B C D E F G H I J K L M N O P Q R S T U V W X Y Z

Koffin Kats - Vampires Curse tab

this is as close as i could get :) its not completely right but its close

e--------------------------------------------------------------------------|
a-7----------10--10-10---10-9--7-------------------------------------------|
d---9---10-9-----------7---------9---10-9----------10-9--9-10---10-9-10----|
g-----7----------------------------7------7--7-7-7------------7---------7--|
b--------------------------------------------------------------------------|
e--------------------------------------------------------------------------|

e-------------------------------------------------------------------------|
a-------------------------------------------------------------------------|
d-10-9-10---10---10-9--9-10---10-----10-9-10---10-----10-9----------------|
g---------7----7------------7----7-9---------7-----9-7------10-10-10-10---|
b-------------------------------------------------------------------------|
e-------------------------------------------------------------------------|

e-------------------------------------------------------------------------|
a-------------------------------------------------------------------------|
d-------------------------------------------------------------------------|
g-9-9-9-9---------------------------10-10-10-10-9-9-9-9-------------------|
b---------10h12-13-15-13-15-13-12-13-------------------10h12-13-15-13-15--|
e-------------------------------------------------------------------------|

e-------------------------------------------------------------------------|
a-------------------------------------------------------------------------|
d-------------------------------------------------------------------------|
g----------10-10-10-10-9-9-9-9------------------------------10-10-10-10-9-|
b-13-12-13---------------------13p12-10-12-13-13p12-10-12-13--------------|
e-------------------------------------------------------------------------|

e-------------------------------------------------------------------------|
a-------------------------------------------------------------------------|
d-------------------------------------------------------------------------|
g-9-9-9------------------------------10-10-10-10-9-9-9-9------------------|
b-------13p12-10-12-13-13p12-10-12-13--------------------10h12-13---------|
e----------------------------------------------------------------12-12-12-|

e-------------------------------------------------------------------------|
a-------------------------------------------------------------------------|
d-------------------------------------------------------------------------|
g-------------------------------------------------------------------------|
b-------------------------------------------------------------------------|
e-12-12-12-12-12----------------------------------------------------------|
Tap to rate this tab
# A B C D E F G H I J K L M N O P Q R S T U V W X Y Z