Song name
# A B C D E F G H I J K L M N O P Q R S T U V W X Y Z

Koffin Kats - Perfect Suicide tab

 This is my first tab. I placed a (*) to a couple of parts where I think is wrong. 
But it sounds good to me. 
This is a fun song to play. Hope you like it. Rate!!!   Koffin Kat Rocks!!!!!!

  
  Artist: Koffin Kats
  Song: Perfect Suicide
  Album: Inhumane

  Tabbed by Ricardo Ruiz
  Email: rickslick_77@yahoo.com




 E|-------------------------------------|
 B|-------------------------------------|
 G|-------------------------------------|
 D|-------------------------------------|
 A|-------------------------------------|
 E|--0-0-2-2-3-3-6-6-3-3-2-2-3-3-2-2----|

 E|-------------------------------------|
 B|-------------------------------------|    
 G|-----------------------------5--4----|
 D|-----------------------------5--4----|
 A|-----------------------------3--2----|
 E|--0-0-2-2-3-3-6-6-3-3-2-2------------|

 E|-------------------------------------|
 B|-------------------------------------|
 G|-------------------------------------|
 D|-------------------------------------|
 A|-------------------------------------|
 E|--0-0-2-2-3-3-6-6-3-3-2-2-3-3-2-2----|

 E|-------------------------------------|
 B|-------------------------------------|
 G|-----------------------------5--4----|
 D|-----------------------------5--4----|
 A|-----------------------------3--2----|
 E|--0-0-2-2-3-3-6-6-3-3-2-2------------|

 E|-------------------------------------|
 B|-------------------------------------|
 G|-------------------------------------|
 D|-------------------------------------|
 A|-------------------------------------|
 E|--0-0-2-2-3-3-6-6-3-3-2-2-3-3-2-2----|

 E|-------------------------------------|
 B|-------------------------------------|
 G|-----------------------------5--4----|
 D|-----------------------------5--4----|
 A|-----------------------------3--2----|
 E|--0-0-2-2-3-3-6-6-3-3-2-2------------|

 E|-------------------------------------|
 B|-------------------------------------|
 G|-------------------------------------|
 D|-------------------------------------|
 A|-------------------------------------|
 E|--0-0-2-2-3-3-6-6-3-3-2-2-3-3-2-2----|

 E|-------------------------------------|
 B|-------------------------------------|
 G|-----------------------------5--4----|
 D|-----------------------------5--4----|
 A|-----------------------------3--2----|
 E|--0-0-2-2-3-3-6-6-3-3-2-2------------|

 E|-------------------------------------|
 B|-------------------------------------|
 G|-------------------------------------|
 D|-------------------------------------|
 A|-------------------------------------|
 E|--0-0-2-2-3-3-6-6-3-3-2-2-3-3-2-2----|

 E|-------------------------------------|
 B|-------------------------------------|
 G|-----------------------------5--4----|
 D|-----------------------------5--4----|
 A|-----------------------------3--2----|
 E|--0-0-2-2-3-3-6-6-3-3-2-2------------|

 E|-------------------------------------|
 B|-------------------------------------|
 G|-------------------------------------|
 D|-------------------------------------|
 A|-------------------------------------|
 E|--0-0-2-2-3-3-6-6-3-3-2-2-3-3-2-2----|

 E|-------------------------------------|
 B|-------------------------------------|
 G|-----------------------------5--4----|
 D|-----------------------------5--4----|
 A|-----------------------------3--2----|
 E|--0-0-2-2-3-3-6-6-3-3-2-2------------|


 E|------------------------------------------------|
 B|------------------------------------------------|
 G|------------------------------------------------|
 D|--------2-3--------2-3--------2-3-4-4-3-3-2-----|
 A|--0-0-3------0-0-3------0-0-3---------------3---|
 E|------------------------------------------------|

 E|-------------------------------------|
 B|-------------------------------------|
 G|-------------------------------------|
 D|-------------------------------------|
 A|-------------------------------------|
 E|--0-0-2-2-3-3-6-6-3-3-2-2-3-3-2-2----|

 E|-------------------------------------|
 B|-------------------------------------|
 G|-----------------------------5--4----|
 D|-----------------------------5--4----|
 A|-----------------------------3--2----|
 E|--0-0-2-2-3-3-6-6-3-3-2-2------------|
          
 E|-------------------------------------|
 B|-------------------------------------|
 G|--4-4-4-4-4---5-5-5-5-5--------------| X3
 D|--4-4-4-4-4---5-5-5-5-5--------------|
 A|--2-2-2-2-2---3-3-3-3-3--------------|
 E|-------------------------------------|

 E|-------------------------------------|
 B|-------------------------------------|
 G|--4-5-4-5-4-5-4----------------------| 
 D|--4-5-4-5-4-5-4----------------------|
 A|--2-3-2-3-2-3-2----------------------|
 E|-------------------------------------|

 E|-------------------------------------|
 B|-------------------------------------|
 G|--5-5-5-5-5--------------------------| 
 D|--5-5-5-5-5---5-5-5-5-5--------------|
 A|--3-3-3-3-3---5-5-5-5-5--------------|
 E|--------------3-3-3-3-3--------------|

 E|-------------------------------------|
 B|-------------------------------------|
 G|-------------------------------------|
 D|-------------------------------------|
 A|-------------------------------------|
 E|--0-0-2-2-3-3-6-6-3-3-2-2-3-3-2-2----|

 E|-------------------------------------|
 B|-------------------------------------|
 G|--5-5-5-5-5--------------------------| 
 D|--5-5-5-5-5---5-5-5-5-5--------------|
 A|--3-3-3-3-3---5-5-5-5-5--------------|
 E|--------------3-3-3-3-3--------------|

 E|-------------------------------------|
 B|-------------------------------------|
 G|-------------------------------------|
 D|-------------------------------------|
 A|-------------------------------------|
 E|--0-0-3-3-0-0-3-3-0-0-3-3-0-0-3-3----|


 E|-------------------------------------|
 B|-------------------------------------|
 G|--5-5-5-5-5--------------------------| 
 D|--5-5-5-5-5---5-5-5-5-5--------------|
 A|--3-3-3-3-3---5-5-5-5-5--------------|
 E|--------------3-3-3-3-3--------------|

 E|-------------------------------------|
 B|-------------------------------------|
 G|-------------------------------------|
 D|-------------------------------------|
 A|-------------------------------------|
 E|--0-0-3-3-2-2-1-1-0-0-3-3-2-2-1-1----|

 E|-------------------------------------|
 B|-------------------------------------|
 G|--5-5-5-5-5--------------------------| 
 D|--5-5-5-5-5---5-5-5-5-5--------------|
 A|--3-3-3-3-3---5-5-5-5-5--------------|
 E|--------------3-3-3-3-3--------------|

 E|-------------------------------------|
 B|-------------------------------------|
 G|--9~~--------------------------------|X3  (*)
 D|--9~~--------------------------------|
 A|--7~~--------------------------------|
 E|-------------------------------------|

 E|-------------------------------------|
 B|-------------------------------------|
 G|-------------------------------------|
 D|-------------------------------------|
 A|-------------------------------------|
 E|--0-0-2-2-3-3-6-6-3-3-2-2-3-3-2-2----|

 E|-------------------------------------|
 B|-------------------------------------|
 G|-----------------------------5--4----|
 D|-----------------------------5--4----|
 A|-----------------------------3--2----|
 E|--0-0-2-2-3-3-6-6-3-3-2-2------------|

 E|-------------------------------------|
 B|-------------------------------------|
 G|-------------------------------------|
 D|-------------------------------------|
 A|-------------------------------------|
 E|--0-0-2-2-3-3-6-6-3-3-2-2-3-3-2-2----|

 E|-------------------------------------|
 B|-------------------------------------|
 G|-----------------------------5--4----|
 D|-----------------------------5--4----|
 A|-----------------------------3--2----|
 E|--0-0-2-2-3-3-6-6-3-3-2-2------------|

 E|-------------------------------------|
 B|-------------------------------------|
 G|-------------------------------------|
 D|-------------------------------------|
 A|-------------------------------------|
 E|--0-0-2-2-3-3-6-6-3-3-2-2-3-3-2-2----|

 E|-------------------------------------|
 B|-------------------------------------|
 G|-----------------------------5--4----|
 D|-----------------------------5--4----|
 A|-----------------------------3--2----|
 E|--0-0-2-2-3-3-6-6-3-3-2-2------------|

 E|-------------------------------------|
 B|-------------------------------------|
 G|-------------------------------------|
 D|-------------------------------------|
 A|-------------------------------------|
 E|--0-0-2-2-3-3-6-6-3-3-2-2-3-3-2-2----|

 E|-------------------------------------|
 B|-------------------------------------|
 G|-----------------------------5--4----|
 D|-----------------------------5--4----|
 A|-----------------------------3--2----|
 E|--0-0-2-2-3-3-6-6-3-3-2-2------------|


 E|------------------------------------------------|
 B|------------------------------------------------|
 G|------------------------------------------------|
 D|--------2-3--------2-3--------2-3-4-4-3-3-2-----|
 A|--0-0-3------0-0-3------0-0-3---------------3---|
 E|------------------------------------------------|

 E|-------------------------------------|
 B|-------------------------------------|
 G|-------------------------------------|
 D|-------------------------------------|
 A|-------------------------------------|
 E|--0-0-2-2-3-3-6-6-3-3-2-2-3-3-2-2----|

 E|-------------------------------------|
 B|-------------------------------------|
 G|-----------------------------5--4----|
 D|-----------------------------5--4----|
 A|-----------------------------3--2----|
 E|--0-0-2-2-3-3-6-6-3-3-2-2------------|
          
 E|-------------------------------------|
 B|-------------------------------------|
 G|--4-4-4-4-4---5-5-5-5-5--------------| X3
 D|--4-4-4-4-4---5-5-5-5-5--------------|
 A|--2-2-2-2-2---3-3-3-3-3--------------|
 E|-------------------------------------|

 E|-------------------------------------|
 B|-------------------------------------|
 G|--4-5-4-5-4-5-4----------------------| 
 D|--4-5-4-5-4-5-4----------------------|
 A|--2-3-2-3-2-3-2----------------------|
 E|-------------------------------------|

 E|-------------------------------------|
 B|-------------------------------------|
 G|--5-5-5-5-5--------------------------| 
 D|--5-5-5-5-5---5-5-5-5-5--------------|
 A|--3-3-3-3-3---5-5-5-5-5--------------|
 E|--------------3-3-3-3-3--------------|

 E|-------------------------------------|
 B|-------------------------------------|
 G|-------------------------------------|
 D|-------------------------------------|
 A|-------------------------------------|
 E|--0-0-2-2-3-3-6-6-3-3-2-2-3-3-2-2----|

 E|-------------------------------------|
 B|-------------------------------------|
 G|--5-5-5-5-5--------------------------| 
 D|--5-5-5-5-5---5-5-5-5-5--------------|
 A|--3-3-3-3-3---5-5-5-5-5--------------|
 E|--------------3-3-3-3-3--------------|

 E|-------------------------------------|
 B|-------------------------------------|
 G|-------------------------------------|
 D|-------------------------------------|
 A|-------------------------------------|
 E|--0-0-3-3-0-0-3-3-0-0-3-3-0-0-3-3----|


 E|-------------------------------------|
 B|-------------------------------------|
 G|--5-5-5-5-5--------------------------| 
 D|--5-5-5-5-5---5-5-5-5-5--------------|
 A|--3-3-3-3-3---5-5-5-5-5--------------|
 E|--------------3-3-3-3-3--------------|

 E|-------------------------------------|
 B|-------------------------------------|
 G|-------------------------------------|
 D|-------------------------------------|
 A|-------------------------------------|
 E|--0-0-3-3-2-2-1-1-0-0-3-3-2-2-1-1----|

 E|-------------------------------------|
 B|-------------------------------------|
 G|--5-5-5-5-5--------------------------| 
 D|--5-5-5-5-5---5-5-5-5-5--------------|
 A|--3-3-3-3-3---5-5-5-5-5--------------|
 E|--------------3-3-3-3-3--------------|

 E|-------------------------------------|
 B|-------------------------------------|
 G|--9~~--------------------------------|X2   (*)
 D|--9~~--------------------------------|
 A|--7~~--------------------------------|
 E|-------------------------------------|

     (SOLO)
 E|-----10----10----11----11----12----12----13----13----|
 B|--12----12----12----12----12----12----12----12-------|X2
 G|-----------------------------------------------------|
 D|-----------------------------------------------------|
 A|-----------------------------------------------------|
 E|-----------------------------------------------------|

 E|--10-10-10-10-10-10-10-11-11-11-11-11-11-11----------|
 B|--12-12-12-12-12-12-12-12-12-12-12-12-12-12----------|
 G|-----------------------------------------------------|
 D|-----------------------------------------------------|
 A|-----------------------------------------------------|
 E|-----------------------------------------------------|

 E|--12-12-12-12-12-12-12-13-13-13-13-13-13-13----------|
 B|--12-12-12-12-12-12-12-12-12-12-12-12-12-12----------|
 G|-----------------------------------------------------|
 D|-----------------------------------------------------|
 A|-----------------------------------------------------|
 E|-----------------------------------------------------|

 E|--10-10-10-10-10-10-10-11-11-11-11-11-11-11----------|
 B|--12-12-12-12-12-12-12-12-12-12-12-12-12-12----------|
 G|-----------------------------------------------------|
 D|-----------------------------------------------------|
 A|-----------------------------------------------------|
 E|-----------------------------------------------------|

 E|--12-12-12-12-12-12-12-13-13-13-13-13-13-13----------|
 B|--12-12-12-12-12-12-12-12-12-12-12-12-12-12----------|
 G|-----------------------------------------------------|
 D|-----------------------------------------------------|
 A|-----------------------------------------------------|
 E|-----------------------------------------------------|

 E|--/5-5-5-5-5---/5-5-5-5-5----------------------------|
 B|--/5-5-5-5-5---/5-5-5-5-5----------------------------|
 G|----------------------------------------------------|
 D|----------------------------------------------------|
 A|----------------------------------------------------|
 E|----------------------------------------------------|

 E|--8p5-8p5-8p5-------8p5-8p5-8p5--------------------|
 B|--5---5---5---8p5---5---5---5---8p5----------------|
 G|---------------------------------------------------|
 D|---------------------------------------------------|
 A|---------------------------------------------------|
 E|---------------------------------------------------|

 E|--10-10-10-10-10-10-10-11-11-11-11-11-11-11----------|
 B|--12-12-12-12-12-12-12-12-12-12-12-12-12-12----------|
 G|-----------------------------------------------------|
 D|-----------------------------------------------------|
 A|-----------------------------------------------------|
 E|-----------------------------------------------------|

 E|--12-12-12-12-12-12-12-13-13-13-13-13-13-13----------|
 B|--12-12-12-12-12-12-12-12-12-12-12-12-12-12----------|
 G|-----------------------------------------------------|
 D|-----------------------------------------------------|
 A|-----------------------------------------------------|
 E|-----------------------------------------------------|

 E|-------------------------------------|
 B|-------------------------------------|
 G|--5-5-5-5-5--------------------------| 
 D|--5-5-5-5-5---5-5-5-5-5--------------|
 A|--3-3-3-3-3---5-5-5-5-5--------------|
 E|--------------3-3-3-3-3--------------|

 E|-------------------------------------|
 B|-------------------------------------|
 G|-------------------------------------|
 D|-------------------------------------|
 A|-------------------------------------|
 E|--0-0-3-3-0-0-3-3-0-0-3-3-0-0-3-3----|

 E|-------------------------------------|
 B|-------------------------------------|
 G|--5-5-5-5-5--------------------------| 
 D|--5-5-5-5-5---5-5-5-5-5--------------|
 A|--3-3-3-3-3---5-5-5-5-5--------------|
 E|--------------3-3-3-3-3--------------|

 E|-------------------------------------|
 B|-------------------------------------|
 G|-------------------------------------|
 D|-------------------------------------|
 A|-------------------------------------|
 E|--0-0-3-3-0-0-3-3-0-0-3-3-0-0-3-3----|

 E|-------------------------------------|
 B|-------------------------------------|
 G|--5-5-5-5-5--------------------------| 
 D|--5-5-5-5-5---5-5-5-5-5--------------|
 A|--3-3-3-3-3---5-5-5-5-5--------------|
 E|--------------3-3-3-3-3--------------|

 E|-------------------------------------|
 B|-------------------------------------|
 G|-------------------------------------|
 D|-------------------------------------|
 A|-------------------------------------|
 E|--0-0-3-3-2-2-1-1-0-0-3-3-2-2-1-1----|

 E|-------------------------------------|
 B|-------------------------------------|
 G|--5-5-5-5-5--------------------------| 
 D|--5-5-5-5-5---5-5-5-5-5--------------|
 A|--3-3-3-3-3---5-5-5-5-5--------------|
 E|--------------3-3-3-3-3--------------|

 E|-------------------------------------|
 B|-------------------------------------|
 G|--9~~--------------------------------|X2  (*)
 D|--9~~--------------------------------|
 A|--7~~--------------------------------|
 E|-------------------------------------|

 E|------------------------------------------------|
 B|------------------------------------------------|
 G|------------------------------------------------|
 D|--------2-3--------2-3--------2-3-4-4-3-3-2-----|
 A|--0-0-3------0-0-3------0-0-3---------------3---|
 E|------------------------------------------------|

 E|-------------------------------------|
 B|-------------------------------------|
 G|-------------------------------------|
 D|-------------------------------------|
 A|-------------------------------------|
 E|--0-0-2-2-3-3-6-6-3-3-2-2-3-3-2-2----|

 E|-------------------------------------|
 B|-------------------------------------|
 G|-----------------------------5--4----|
 D|-----------------------------5--4----|
 A|-----------------------------3--2----|
 E|--0-0-2-2-3-3-6-6-3-3-2-2------------|
          
 E|-------------------------------------|
 B|-------------------------------------|
 G|--4-4-4-4-4---5-5-5-5-5--------------| X3
 D|--4-4-4-4-4---5-5-5-5-5--------------|
 A|--2-2-2-2-2---3-3-3-3-3--------------|
 E|-------------------------------------|

 E|-------------------------------------|
 B|-------------------------------------|
 G|--4-5-4-5-4-5-4----------------------| 
 D|--4-5-4-5-4-5-4----------------------|
 A|--2-3-2-3-2-3-2----------------------|
 E|-------------------------------------|

 E|-------------------------------------|
 B|-------------------------------------|
 G|--5-5-5-5-5--------------------------| 
 D|--5-5-5-5-5---5-5-5-5-5--------------|
 A|--3-3-3-3-3---5-5-5-5-5--------------|
 E|--------------3-3-3-3-3--------------|

 E|-------------------------------------|
 B|-------------------------------------|
 G|-------------------------------------|
 D|-------------------------------------|
 A|-------------------------------------|
 E|--0-0-2-2-3-3-6-6-3-3-2-2-3-3-2-2----|

 E|-------------------------------------|
 B|-------------------------------------|
 G|--5-5-5-5-5--------------------------| 
 D|--5-5-5-5-5---5-5-5-5-5--------------|
 A|--3-3-3-3-3---5-5-5-5-5--------------|
 E|--------------3-3-3-3-3--------------|

 E|-------------------------------------|
 B|-------------------------------------|
 G|-------------------------------------|
 D|-------------------------------------|
 A|-------------------------------------|
 E|--0-0-3-3-0-0-3-3-0-0-3-3-0-0-3-3----|


 E|-------------------------------------|
 B|-------------------------------------|
 G|--5-5-5-5-5--------------------------| 
 D|--5-5-5-5-5---5-5-5-5-5--------------|
 A|--3-3-3-3-3---5-5-5-5-5--------------|
 E|--------------3-3-3-3-3--------------|

 E|-------------------------------------|
 B|-------------------------------------|
 G|-------------------------------------|
 D|-------------------------------------|
 A|-------------------------------------|
 E|--0-0-3-3-2-2-1-1-0-0-3-3-2-2-1-1----|

 E|-------------------------------------|
 B|-------------------------------------|
 G|--5-5-5-5-5--------------------------| 
 D|--5-5-5-5-5---5-5-5-5-5--------------|
 A|--3-3-3-3-3---5-5-5-5-5--------------|
 E|--------------3-3-3-3-3--------------|


 E|-------------------------------------|
 B|-------------------------------------|
 G|-------------------------------------|
 D|-------------------------------------|
 A|-------------------------------------|
 E|--0-0-3-3-0-0-3-3-0-0-3-3-0-0-3-3----|

 E|-------------------------------------|
 B|-------------------------------------|
 G|--5-5-5-5-5--------------------------| 
 D|--5-5-5-5-5---5-5-5-5-5--------------|
 A|--3-3-3-3-3---5-5-5-5-5--------------|
 E|--------------3-3-3-3-3--------------|

 E|-------------------------------------|
 B|-------------------------------------|
 G|-------------------------------------|
 D|-------------------------------------|
 A|-------------------------------------|
 E|--0-0-3-3-0-0-3-3-0-0-3-3-0-0-3-3----|

 E|-------------------------------------|
 B|-------------------------------------|
 G|--5-5-5-5-5--------------------------| 
 D|--5-5-5-5-5---5-5-5-5-5--------------|
 A|--3-3-3-3-3---5-5-5-5-5--------------|
 E|--------------3-3-3-3-3--------------|

 E|-------------------------------------|
 B|-------------------------------------|
 G|-------------------------------------|
 D|-------------------------------------|
 A|-------------------------------------|
 E|--0-0-3-3-0-0-3-3-0-0-3-3-0-0-3-3----|

 E|-------------------------------------|
 B|-------------------------------------|
 G|--5-5-5-5-5--------------------------| 
 D|--5-5-5-5-5---5-5-5-5-5--------------|
 A|--3-3-3-3-3---5-5-5-5-5--------------|
 E|--------------3-3-3-3-3--------------|
 
 E|-------------------------------------|
 B|-------------------------------------|
 G|--9~~--------------------------------|
 D|--9~~--------------------------------|  (*)
 A|--7~~--------------------------------|
 E|-------------------------------------|
Tap to rate this tab
 
# A B C D E F G H I J K L M N O P Q R S T U V W X Y Z