Song name
# A B C D E F G H I J K L M N O P Q R S T U V W X Y Z

Koffin Kats - Chainsaw Massacre tab

----------------------------------------------------------------------------
			 CHAINSAW MASSACRE - Koffin Kats
----------------------------------------------------------------------------

Tabbed by: Violent-World138 (Josh Pinto
Email: Allmurder.allguts.allfun@hotmail.com

Tuning: Half-Step Down

I know this song is already tabbed, but the intro is completely wrong (no offense to the 
who submitted it)

INTRO:
I play it with single notes, but play it however you like.
e|-2/3--------------------|
B|-2/3--------------------|
G|-----5--3---3--6-5-6-5~-|
D|----------5-------------|
A|------------------------|
E|------------------------|

VERSE:

F# A D C# [x3]

F# F E F F#

CHORUS:

D B ***E>F#>E>F#>E>F#*** A

D B C B A G F#

*** G|-------------------------2-| ***
    D|-------------------------2-|
    A|-4-4-4-4-4-4-4-4-4-4-4-4-0-|
    E|-0-0-2-2-0-0-2-2-0-0-2-2---|


************************************

| /   slide up
| \   slide down
| h   hammer-on
| p   pull-off
| ~   vibrato
| +   harmonic
| x   Mute note
| b   Bend
| pb  Pre-bend
| br  Bend release
| pbr Pre-bend release
| brb Bend release bend

************************************
Tap to rate this tab
 
# A B C D E F G H I J K L M N O P Q R S T U V W X Y Z