Song name
# A B C D E F G H I J K L M N O P Q R S T U V W X Y Z

Koffin Kats - Domination Final tab

-----------------------------------------------------------------------------
                               Domination Final
-----------------------------------------------------------------------------
By: The Koffin Kats
Album: Forever For Hire
Tabbed by: Myra
Tuning:Standard

Intro:
e-----------------------------------------------------------------------------|
b-----------------------------------------------------------------------------|
g------------------7-7-6-6-------------------7-7-4-4-------------------7-7-6--|
d-4-4--4-4---------7-7-6-6--4-4--4-4---------7-7-4-4--4-4--4-4---------7-7-6--|
a-4-4--4-4-0h4-----5-5-4-4--4-4--4-4-0h4-----5-5-2-2--4-4--4-4-0h4-----5-5-4--|
e-2-2--2-2-----5-2----------2-2--2-2-----5-2----------2-2--2-2-----5-2--------|

                    |Verse:
e-------------------|---------------------------------------------------------|
b-------------------|---------------------------------------------------------|
g-4-4--6-6--4-4--4-4|---------7-7-6-6---------7-7-4-4---------7-7-6-6-4-4-6-6-|
d-4-4--6-6--4-4--4-4|-4-4-4-4-7-7-6-6-4-4-4-4-7-7-4-4-4-4-4-4-7-7-6-6-4-4-6-6-|
a-2-2--4-4--2-2--2-2|-4-4-4-4-5-5-4-4-4-4-4-4-5-5-2-2-4-4-4-4-5-5-4-4-2-2-4-4-|
e-------------------|-2-2-2-2---------2-2-2-2---------2-2-2-2-----------------|

           |Chorus:
e----------|-----------------------------------------------------------------|
b----------|-----------------------------------------------------------------|
g----------|-7-7-7-7--6-6-6-6--7-7-7-7--6-6-6-6--7-7-7-7--6-6-6-6--4-4-4-4---|
d-4-4--4-4-|-7-7-7-7--6-6-6-6--7-7-7-7--6-6-6-6--7-7-7-7--6-6-6-6--4-4-4-4-4-|
a-4-4--4-4-|-5-5-5-5--4-4-4-4--5-5-5-5--4-4-4-4--5-5-5-5--4-4-4-4--2-2-2-2-4-|
e-2-2--2-2-|---------------------------------------------------------------2-|

                         |Solo:(not really sure on some parts)
e-------|repeat-verse-and|---------------------------------------------------|
b-------|chorus-through--|-2h3p2-0---------2-0-----------------2--0------2-2-|
g-------|out-song--------|---------2-4-2-4-----2--------2-4-2-4------2-------|
d-4-4-4-|----------------|-----------------------4--2-2h4----------------4---|
a-4-4-4-|----------------|---------------------------------------------------|
e-2-2-2-|----------------|---------------------------------------------------|


e--0----------|couldn't|55555555444444222222444444444445555555599999555555544-|
b-3-3--2-3-2-0|-get----|------------------------------------------------------|
g-------------|--this--|------------------------------------------------------|
d-------------|part----|------------------------------------------------------|
a-------------|------|--------------------------------------------------------|
e-------------|------|--------------------------------------------------------|

e44444444445555555554444444222222444444444-----------55555554444444422222----|
b-----------------------------------------22222222222------------------------|
g----------------------------------------------------------------------------|
d----------------------------------------------------------------------------|
a----------------------------------------------------------------------------|
e----------------------------------------------------------------------------|

well the solos something like that?
then just repeat chorus :) i'll probably update the tab once i got the solo down so yep.
Tap to rate this tab
 
# A B C D E F G H I J K L M N O P Q R S T U V W X Y Z