Song name
# A B C D E F G H I J K L M N O P Q R S T U V W X Y Z

Koffin Kats - Koffin Kat Rock tab

-----------------------------------------------------------------------------
			     Koffin Kat Rock - Koffin Kat
-----------------------------------------------------------------------------
Tabbed by:PsychoZombie

Tuning:Standard

Intro
e|---------------------------------------------------------------------------|
B|-DONT-REPEAT-POWER-CHORD---------------------------------------------------|
G|---------------------------------------------------------------------------|
D|-7-------------------X4----------------------------------------------------|
A|-7-------5-7-8-7-5---------------------------------------------------------|
E|-5---5-8-----------8-------------------------------------------------------|

Verse
e|----------------------------------------------------------------------------|
B|----------------------------------------------------------------------------|
G|----------------------------------------------------------------------------|
D|----------------X4-------------------X4------5-7-8-7-5-------5-7-8-7-5------|
A|-----5-7-8-7-5-----------5-7-8-7-5-------5-8-----------8-5-8-----------8----|
E|-5-8-----------8-----5-8-----------8----------------------------------------|
                       x x x x x x x xFourth time the last 8758 are not mute

e|---------------------------------------------------------------------------|
B|---------------------------------------------------------------------------|
G|--------------------------------let-ring-----------------------------------|
D|----------------------------------7--------7-------------------------------|
A|-----5-7-8-7-5-------5-7-8-7-5----7--------7-------------------------------|
E|-5-8-----------8-5-8-----------8--5--------5-------------------------------|

Chorus
 jive blues...      please our...    and all sys...   koffin kat rock
e|----------------------------------------------------------------------------|
B|----------------------------------------------------------------------------|
G|----------------------------------------------------------------------------|
D|-------------7777-------------7777-------------7777-------------------------|
A|-7777777755555555-7777777755555555-7777777755555555-7777777755-533----------|
E|-555555553333-----555555553333-----555555553333-----5555555533-311----------|

Solo (not sure its right)
e|---------------------------------------------------------------------------|
B|8-888888888888--10-101010101010101010101010--13-131313131313131313131313---|
G|7-777777777777--9--9-9-9-9-9-9-9-9-9-9-9-9---12-121212121212121212121212---|
D|---------------------------------------------------------------------------|
A|---------------------------------------------------------------------------|
E|---------------------------------------------------------------------------|

e|-----------------------------------------------------------------97646797--|
B|-16-161616161616-15b-7-777776-777776-777779-77777--------------------------|
G|-15-151515151515-----7-777776-777776-777779-77777-7-777776-777777----------|
D|--------------------------------------------------7-777776-777777----------|
A|---------------------------------------------------------------------------|
E|---------------------------------------------------------------------------|

e------------------------|
B|-----------------------|
G|-----------------------|
D|--7----7----7----7-----|
A|--7----7----7----7-----|
E|--5----5----5----5-----|

Intro
Verse
Chorus
Verse
Chorus
Solo
Verse
Chorus X2

Lyrics:
Verse
It drinks the blood of angels as its chewing off their ways,
Bloodlust in its pursuit of destroying everything,
It'll hold your world in one claw and strike it with the other,
and when it's through with your life, It'll move on to another,
Well, yeah

Chorus
Claw to Claw and ask I'm ready to pop
From Jive Blues to Beer, Koffin Kat Rock,
Please our demon dead, Koffin Kat Rock,
And all systems go, Koffin Kat Rock,
Clawing at your soul, Koffin Kat Rock

Verse
It's haunting in the darkest shadows of manciple daymare,
And we're the ones to feed on flesh, it's bopping yet in flare,
There's children in the backyard, the easiest to prey,
The Koffin Kat will never stop when there's lives to take away homie,
Well, no

Verse
It drinks the blood of angels as its chewing off their ways,
Bloodlust in its pursuit of destroying everything,
It'll hold your world in one claw and strike it with the other,
and when it's taken your life, It'll move on to another,
Baby, well, oh

Outro Chorus (Last of the two choruses at the end)
Well oh yeah, Koffin Kat Rock,
Ooooohhhhhh, Koffin Kat Rock,
Ohhhh yeah, Koffin Kat Rock,
Nooooo, Koffin Kat Rock

************************************


| x   Mute note
| b   Bend


************************************
Tap to rate this tab
 
# A B C D E F G H I J K L M N O P Q R S T U V W X Y Z