Song name
# A B C D E F G H I J K L M N O P Q R S T U V W X Y Z

Koji Kondo - Bowser tab

Bowser Castle from Mario World

Thank for looking at this tab. Please Rate.

e----------------------------------------------|
B----------------------------------------------|
G----10------12------13-------12---------------|
D----------------------------------------------|
A----------------------------------------------|
E----------------------------------------------|
     Tremelo Pick Here.


e----------------------------------------------|
B----------------------------------------------|
G--------------------------------5-------------|
D-----6----3-----------3------3-------6--5-----|
A--------------3--5---------3------------------|
E----------------------------------------------|

e----------------------------------------------|
B----------------------------------------------|
G----------------------------------------------|
D-3---5-----------3--5----------3--5--6--4--5--|
A-3---5-----------3--5----------3--5--6--4--5--|
E-1---3----1--3---1--3---1--3---1--3--4--2--3--|

Thank for looking at this tab. Please Rate.
Tap to rate this tab
 
# A B C D E F G H I J K L M N O P Q R S T U V W X Y Z