Koji Kondo - Bolero Of Fire tab

THis is the warp song Bolero of fire, which takes you to the Fire temple.
E|---------5---5-------------6---6-----|
B|-6---6-----6---6---8---8-----8---8---|
G|---7---7-------------9---9-----------|
D|-------------------------------------|
A|-------------------------------------|
E|-------------------------------------|

E|-------------------------5---5-----------------------||
B|-----------------6---6-----6---6-8---8---8-6---------||
G|---------7---7-----7---7-----------6---6-------------||
D|-7---7-----7---7-----------------------------7-------||
A|---8---8---------------------------------------8-7-5-||
E|-----------------------------------------------------||
Tap to rate this tab
 
# A B C D E F G H I J K L M N O P Q R S T U V W X Y Z