Song name
# A B C D E F G H I J K L M N O P Q R S T U V W X Y Z

Koji Kondo - Minuet Of Forest tab

|-------10--7----------7-----------------|
|------------------10-----10-------------|
|---7------------------------------------|
|----------------------------------------| x2
|----------------------------------------|
|----------------------------------------|

|----------------------------------------|
|------10--8--10-----8/10/8/7-----5------|
|---7------------------------------------|
|----------------------------------------|
|----------------------------------------|
|----------------------------------------|

Suggestions?
Mail me :]
guitar_maniac_dope@hotmail.com
Tap to rate this tab
# A B C D E F G H I J K L M N O P Q R S T U V W X Y Z