Song name
# A B C D E F G H I J K L M N O P Q R S T U V W X Y Z

Koji Kondo - Kakariko Village tab

 B:|------------------------------------------------------------------|
 H:|-------4----------------------------5-----------------------------|
 G:|-----4---4-----------4------------6---6----------3----------------|  x3
 D:|---4-------4-------6----6-------6------6-------4---4--------------|
 A:|-2---------------6--------6---4--------------4-------4------------|
 E:|---------------4---------------------------2----------------------|

 B:|------------------------------------------------------------------|
 H:|------------------------------------------------------------------|
 G:|-------1-------------5-------------1-------------3----------------|
 D:|-----2---2---------4---4---------2---2---------4---4--------------|
 A:|---2-------2-----4-------4-----2-------2-----4-------4~~~---------|
 E:|-0-------------2-------------0-------------2----------------------|


LG PaTTa
Tap to rate this tab
# A B C D E F G H I J K L M N O P Q R S T U V W X Y Z