Song name
# A B C D E F G H I J K L M N O P Q R S T U V W X Y Z

Koji Kondo - Zeldas Lullaby tab

Zelda's Lullaby - Koji Kondo


Tabbed by: Nickolas D'Alimonte
E-Mail: Paromont3@hotmail.com


p= pull-off||h= Hammer-On||*=repeat up to here||^= Bend

           2x                                         *Do not repeat 2nd time
E-----------------------------------------------17--15*---------------------|
B-12--15-------------12--15-------------12--15--------*--15--13p12----------|
G---------14--12h14----------14--12h14----------------*-------------14------|
D-----------------------------------------------------*---------------------|
A-----------------------------------------------------*---------------------|
E-----------------------------------------------------*---------------------|

=============================================================================
|||||||||||||||||||||||||||||||||||||||||||||||||||||||||||||||||||||||||||||

E-22--22--20p19h20p19------20--19p17h19p17------22--20p19h20p19-----20-24^26|
B----------------------20-------------------17-------------------20---------|
G---------------------------------------------------------------------------|
D---------------------------------------------------------------------------|
A---------------------------------------------------------------------------|
E---------------------------------------------------------------------------|

Bend before strumming the last note****
Tap to rate this tab
# A B C D E F G H I J K L M N O P Q R S T U V W X Y Z