Song name
# A B C D E F G H I J K L M N O P Q R S T U V W X Y Z

Koji Kondo - Temple Of Time Theme tab

Temple of Time
E|----------------------------------------------------------------------------|
b|---------------------------------------------1-0----------------------------|
g|----2-------------------2-----------------2---------0------0--2-------------|
d|-----0-----3--------------0----3-----------------3--------------0-----2-3---|
a|--------------------------------------------------------------------------3-|
e|----------------------------------------------------------------------------|

E|---------------------------------------------------------------------------|
b|---------------------------------------------------------------------------|
g|---------------------------------------------------------------------------|
d|---0------2----2h3---0--------0------2---------2h3--0----------------------|
a|------3------3----------------------3--------3-----------------------------|
e|---------------------------------------------------------------------------|

E|---------------------------------------------------------------------------|
b|------1---0---1-------1----------------------------------------------------|
g|--2-----------------2-----0---2--------------------------------------------|
d|-------------------------------------0--------2---0------------------------|
a|-----------------------------------------3---------------------------------|
e|---------------------------------------------------------------------------|

E|---------------------------------------------------------------------------|
b|---------------------------------------------------------------------------|
g|-----0--------0------------------------------------------------------------|
d|-3-------3--------2-----3----2-----0---------------------------------------|
a|---------------------------------------------------------------------------|
e|---------------------------------------------------------------------------|
Tap to rate this tab
# A B C D E F G H I J K L M N O P Q R S T U V W X Y Z