Song name
# A B C D E F G H I J K L M N O P Q R S T U V W X Y Z

Koji Kondo - Ocarina Of Time tab

Ocarina of Time



[Piano-on guitar]                        [Go slow now(on the slide)in the rithm of the song]
-----------------------------------  -----------------------------------------------|
-----------------------------------  -----79-------79------79------79------79-------|
--------79-------------------79--  -------------------------------------------------|
--7---------------------0----------  --7---------0--------7-------0---------7-------|
-----------------------------------  -----------------------------------------------|
-----------------------------------  -----------------------------------------------|


[Ocarina-on Guitar]

-------------------------------------------------------------------------------------------|
----------------------------------   ---------------------------------------------10----7--|
----------------------------------   -----------------97-----------------97----------------|
---b13b14b15---------b13b14b15----   7-----8---12-----------7----8--12---------------------|
----------------------------------   ------------------------------------------------------|
----------------------------------   ------------------------------------------------------|
                                       ----------------------------------------------------|
Tap to rate this tab
 
# A B C D E F G H I J K L M N O P Q R S T U V W X Y Z