Song name
# A B C D E F G H I J K L M N O P Q R S T U V W X Y Z

Koji Kondo - Nocturne Of Shadow tab

e---------------------------7---5-5---7-5---|
B--0--------------------------------3-----6-|
G------2-2---4-2----------------------------|
D----------0-----3--------------------------|
A-------------------------------------------|
E-------------------------------------------|

e--3---1-1---3-1--4---2-2---4--2---1-|
B----------1--------------2----------|
G------------------------------------|
D------------------------------------|
A------------------------------------|
E------------------------------------|

----------
Tap to rate this tab
# A B C D E F G H I J K L M N O P Q R S T U V W X Y Z