Song name
# A B C D E F G H I J K L M N O P Q R S T U V W X Y Z

Koji Kondo - Ballad Of The Windfish tab

Ballad of the Windfish
The Legend of Zelda: Link's Awakening

Tabbed by Richard Schaefer 
(www.gametabs.net)


e|--7-9-10---7-9-10-----10-9-7-2-5---7|
B|------------------------------------|
G|------------------------------------|
D|------------------------------------|
A|------------------------------------|
E|------------------------------------|

e|--------------3---2-0-2-------------|
B|--0-2-3---0-3-----------------------|
G|------------------------------------|
D|------------------------------------|
A|------------------------------------|
E|------------------------------------|

e|--12-10-2-2--3-----12-10-9-7-2-0-2-7-3---3-5|
B|--------------------------------------------|
G|--------------------------------------------|
D|--------------------------------------------|
A|--------------------------------------------|
E|--------------------------------------------|

e|----0-5-2-------7----------6---15-14|
B|--2-----------3---------------------|
G|------------------------------------|
D|------------------------------------|
A|------------------------------------|
E|------------------------------------|
Tap to rate this tab
# A B C D E F G H I J K L M N O P Q R S T U V W X Y Z