Song name
# A B C D E F G H I J K L M N O P Q R S T U V W X Y Z

Koji Kondo - Agithas Castle tab

Agitha's Castle
The Legend of Zelda: Twilight Princess

Tabbed by Richard Schaefer
(www.gametabs.net)


e----------------------------------------------4-5--|
B--5-6-5-6-5-6-5-6-5-6-7-8-7-8-7-8-7-8-7-8-7-8------|
G---------------------------------------------------|
D---------------------------------------------------|
A---------------------------------------------------|
E---------------------------------------------------| x2

e--------------------------------------|
B--13--12-10----10---------------9-10--|
G------------12----9----9-11-12--------|
D--------------------------------------|
A--------------------------------------|
E--------------------------------------|

e------------10-------------------------|
B--10--12-13------------------10-12-----|
G----------------12----10--12--------9--|
D---------------------------------------|
A---------------------------------------|
E---------------------------------------|

e--------------------------------------|
B--13--12-10----10---------------9-10--|
G------------12----9----9-11-12--------|
D--------------------------------------|
A--------------------------------------|
E--------------------------------------|

e------------10--------------|
B--10--12-13----------12-13--|
G----------------12----------|
D----------------------------|
A----------------------------|
E----------------------------|

e--8--7------8--------7-8--7------7--|
B---------10-------10----------10----|
G------------------------------------|
D------------------------------------|
A------------------------------------|
E------------------------------------|

e--10--8--7-10-------8-10--12---10-----|
B-----------------11-------------------|
G----------------------------------12--|
D--------------------------------------|
A--------------------------------------|
E--------------------------------------|

e--8--7------8--------7-8--7------7--|
B---------10-------10----------10----|
G------------------------------------|
D------------------------------------|
A------------------------------------|
E------------------------------------|

e--13--12--10--12--------------------------------10--|
B----------------------13--13-----------10-12-13-----|
G------------------12---------10-----12--------------|
D----------------------------------------------------|
A----------------------------------------------------|
E----------------------------------------------------|

Repeat
Tap to rate this tab
# A B C D E F G H I J K L M N O P Q R S T U V W X Y Z