Song name
# A B C D E F G H I J K L M N O P Q R S T U V W X Y Z

Koji Kondo - Requiem Of Spirit tab

This is the theme from the Spirit medallion from the Legend of Zelda: Ocarina of Time.

With bass:

e----------------------------------------------|
b---------0---------------------------0--------|
g----0-------0-------------------0-------0-----|
d--2---2--------2~-------------2---2--------2--|
a-------------------(3-2-0-2)------------------|
E----------------------------------------------|


Without bass:

e--------------------------------------------|
b---------0-------------------------0--------|
g----0-------0------------------0-------0----|
d--2---2--------2~--3-2-1-2--2---2--------2--|
a--------------------------------------------|
E--------------------------------------------|

Pretty easy.
Tap to rate this tab
 
# A B C D E F G H I J K L M N O P Q R S T U V W X Y Z