Song name
# A B C D E F G H I J K L M N O P Q R S T U V W X Y Z

Koji Kondo - Farewell Hyrule King tab

Help us improve GuitareTab! Take a short survey!
E|------------------|
B|------------------|
G|------------------|
D|----0---1---0---1-|
A|------------------|
E|--3---3---3---3---|

E|--3----3--4--6--2-6-3---|
B|----3-----------------3-|
G|------------------------|
D|------------------------| Repeat Twice
A|------------------------|
E|------------------------|

E|--8----8--13--11--9-7-8---|
B|----8-------------------8-|
G|--------------------------|
D|--------------------------|
A|--------------------------|
E|--------------------------|

E|--3----3--4--6--2-6-3---|
B|----3-----------------3-|
G|------------------------|
D|------------------------|
A|------------------------|
E|------------------------|

E|-----------------8---------------------|
B|--6--4-3-1--3--4---8--3-3-3--4--6-4--3-|
G|----------------------4-4-4--5--7-5--4-|
D|---------------------------------------| Repeat Twice
A|---------------------------------------|
E|---------------------------------------|

E|-----------------3--6--4-3-1--3--4--6--8--6-5-3--6--8--10--10-|
B|--6--4-3-1--3--4----3------------------5---------------10--10-|
G|--------------------5----------------------------------12--11-|
A|--------------------------------------------------------------|
D|--------------------------------------------------------------|
E|--------------------------------------------------------------|
Related for Farewell Hyrule King tab