Song name
# A B C D E F G H I J K L M N O P Q R S T U V W X Y Z

Koji Kondo - Eponas Song tab

Epona's Song
                                   
E||--10----7---------------|--10----7---------------|
B||-------------10~--------|-------------10~--------|
G||------------------------|------------------------|
D||------------------------|------------------------|
A||------------------------|------------------------|
E||------------------------|------------------------|


                   
--10----7--------7---------|-----------||
-----------10---------10~--|-----------||
---------------------------|-----------||
---------------------------|-----------||
---------------------------|-----------||
---------------------------|-----------||
Tap to rate this tab
# A B C D E F G H I J K L M N O P Q R S T U V W X Y Z