Song name
# A B C D E F G H I J K L M N O P Q R S T U V W X Y Z

Koji Sakurai - Fierce Battle tab

      ---------Fierce Battle - Koji Sakurai-----------------|
------Arc the Lad: Twilight of the Spirits Soundtrack-------|

Tabbed by: Blake Gonzalez
Email: Narcissus.nautilus@hotmail.com

This is my first tablature of a game, and from listening through the song and testing 
motion, etc., it sounds correct.
Enjoy.

 _______
|||KEY|||

b = Short, wavy bend
bb = Longer, wavy bend
~ = Let the note ring for a short time
~~ = Let the note ring for a longer time
~~~ = Let the note ring for a very long time
/ = Slide down

____________________________________________________________________________________________


e|---------------------------------------------------------|
B|---------------------------------------------------------|
G|-------------------------------------9-10-11-10-9--------|
D|---------------------------------------------------------|   Play this...
A|---7-11-10-11-7-11-10-11-7-11-12-14----------------------|
E|---------------------------------------------------------|

e|---------------------------------------------------------|   and this...
B|---------------------------------------------------------|
G|---11-13-14-16-14-13-11~---------------------------------|64th notes, FAST.
D|---------------------------------------------------------|
A|---------------------------------------------------------|
E|---------------------------------------------------------|


e|---------------------------------------------------------|
B|---10--8--10--13bb--10--8--11bb---18bb---18-16-----------|
G|-----------------------------------------------18-16-----|
D|---------------------------------------------------------|
A|---------------------------------------------------------|
E|---------------------------------------------------------|


e|---------------------------------------------------------|
B|---------------------------------------------------------|
G|--15-14-12/7--9-11-13-7b-5-7b----------------------------|
D|---------------------------------------------------------|
A|---------------------------------------------------------|
E|---------------------------------------------------------|


e|---12--15--15--12--15------------------------------------|
B|-----------------------15--17--15--16b-------------------|
G|---------------------------------------------------------|
D|---------------------------------------------------------|
A|---------------------------------------------------------|
E|---------------------------------------------------------|


e|---------------------------------------------------------|
B|---12--12--14--15--12--11--------------------------------|
G|---------------------------------------------------------|
D|---------------------------------------------------------|
A|---------------------------------------------------------|
E|---------------------------------------------------------|


e|---------------------------------------------------------|
B|---------------------------------------------------------|
G|---12-12-15-14-12-15-14-12-15-14-12-15-14-12-15-14-------| Play this...
D|---------------------------------------------------------|
A|---------------------------------------------------------|
E|---------------------------------------------------------|


e|---------------------------------------------------------| and this...
B|---------------------------------------------------------|
G|---12-15-14-12-15-14-12-15-14-12-15-14-------------------|64th notes, FAST.
D|---------------------------------------------------------|
A|---------------------------------------------------------|
E|---------------------------------------------------------|

e|---------------------------------------------------------|
B|---13-16-18b/--14-17-14-17--12-12--13-16-10-15bb---------|
G|------------------------------------------------9~~------|
D|---------------------------------------------------------|
A|---------------------------------------------------------|
E|---------------------------------------------------------|

                    THEN, fade to this...

e|---------------------------------------------------------|
B|--12~~~/0------------------------------------------------|
G|---------------------------------------------------------|
D|---------------------------------------------------------|
A|---------------------------------------------------------|
E|---------------------------------------------------------|
Tap to rate this tab
 
# A B C D E F G H I J K L M N O P Q R S T U V W X Y Z