Song name
# A B C D E F G H I J K L M N O P Q R S T U V W X Y Z

Koji - Little Bird tab

                                                  LITTLE BIRD - Koji

Koji's Official Website: http://kojisaysaloha.com/

Tuning: Standard


Here's the video I used:

http://www.youtube.com/watch?v=XGimWPPKpYs


Main Progression

"My little bird, my little bird..."
e|----------------------------------------|
B|----------------------------------------|
G|--6--6-6------------4--4-4--666---------|
D|-----------6--6-6--------------44-66----|
A|--7--7-7----------------------------44/-|
E|-----------7--7-7---5--5-5--------------|


Chorus

"While you are sleeping I will keeping singing your sweet melody..."
e|--0-0---0-0-----------------------------|
B|--0-0---0-0-----------------------------|
G|--5-5---6-6-----------------------------|
D|--5-5---7-7-----------------------------|
A|--7-7---7-7-----------------------------|
E|--0-0---5-5-----------------------------|


Bridge

e|----------------------------------------|
B|----------------------------------------|
G|----------------------------------------|
D|----------------------------------------|
A|----------------------------------------|
E|--9-8-7-6-------------------------------|

"You gave me wings I flew so high..."
e|----------0-0--x------------------------|
B|----------0-5--x------------------------|
G|----------6-5--x------------------------|
D|----------7-7--x------------------------|
A|----------7-7--x------------------------|
E|--9-8-7-6-5-5--x------------------------|
 PM.......


Outro

"My little bird, my little bird, I will keep on singing..."
e|--0-0---0--0----------------------------|
B|--0-0---0--0----------------------------|
G|--5-5---8--6----------------------------|
D|--5-5---9--7----------------------------|
A|--7-7---9--7----------------------------|
E|--0-0---7--5----------------------------|

e|----------0-----------------------------|
B|----------3-----------------------------|
G|----------1-----------------------------|
D|-------2--2-----------------------------|
A|-----2----2-----------------------------|
E|-0-4------0-----------------------------|



Main Progression x6
Chorus x4
Main Progression x 4
Chorus x 4
Bridge
Outro x 4
Tap to rate this tab
# A B C D E F G H I J K L M N O P Q R S T U V W X Y Z