Song name
# A B C D E F G H I J K L M N O P Q R S T U V W X Y Z

Koko Taylor - Come To Mama tab

Band/Artist: Koko Taylor
Song Title: Come To Mama
Album Title: Deluxe Edition
Transcribed by: aig91


Additional info: All riffs/licks are repeated throughout 
the song, but some are slightly altered during certain 
parts. I didn’t include all the tiny little changes during 
those parts, as they are very small. Shouldn’t be too hard 
to figure out for yourself, but if you really want me to 
include those then let me know. I also did not list the 
order in which these riffs are played, so you’ll have 
to listen to find out. But all the main parts are there.  



|  h = hammer on
|  p = pull off
|  b = full bend
|  r = release bend
|  / = slide up
|  \ = slide down
|  x = muted note
|  ~ = vibrato



Intro:

e|-------------------------------------------------------------|
B|-------------------------------------------------------------|
G|-----------------------8brp6--------------------------8------| Repeat
D|-6h8--8--x--x--6--8-------------6h8--8--x--x--6--8-------8---|  x 4
A|-6h8--8--x--x--6--8-------------6h8--8--x--x--6--8-----------|
E|-------------------------------------------------------------|


e|--6---------------------|
B|-----9--6---------------|
G|-----------9--8--6------|
D|------------------------|
A|------------------------|
E|------------------------|



Verses:

e|-------------------------------------------------------------|
B|-------------------------------------------------------------|
G|-----------------------8brp6--------------------------8------| Repeat
D|-6h8--8--x--x--6--8-------------6h8--8--x--x--6--8-------8---| till
A|-6h8--8--x--x--6--8-------------6h8--8--x--x--6--8-----------| bridge
E|-------------------------------------------------------------|



Bridge:

e|-------------------------------------------------------------|
B|-------------------------------------------------------------|
G|-8---8--x-x--8-------8--8--8--8--x-x-8-8---------------------|
D|-8---8--x-x--8-------8--8--8--8--x-x-8-8---------------------|
A|-------------------------------------------------------------|
E|-------------------------------------------------------------|


e|------------------------6------------------------------------|
B|--6---6--x-x--6------6--8--6----------------------------9----|
G|--7---7--x-x--7------7--7--7---8-----------8-8-8-8-8----8----|
D|-------------------------------8-----------8-8-8-8-8----8----|
A|-------------------------------------------------------------|
E|-------------------------------------------------------------|



Chorus: 

e|-------------------------------------------------------------|
B|-------------------------------------------------------------|
G|-----------------------8brp6--------------------------8------| 
D|-6h8--8--x--x--6--8-------------6h8--8--x--x--6--8-------8---| 
A|-6h8--8--x--x--6--8-------------6h8--8--x--x--6--8-----------|
E|-------------------------------------------------------------|

e|-------------------------------------------------------------|
B|-------------------------------------------------------------|
G|-----------------------8brp6---------------------------------| 
D|-6h8--8--x--x--6--8-------------6h8--8--x--x--6--8-----------|  
A|-6h8--8--x--x--6--8-------------6h8--8--x--x--6--8-----------|
E|-------------------------------------------------------------|


e|--6---------------------|
B|-----9--6---------------|
G|-----------9--8--6------|
D|------------------------|
A|------------------------|
E|------------------------|



Instrumental break: 

e|--9--9------9--9------9--9---9-9-----------------------------|
B|--9--9------9--9------9--9---9-9---11------------------------|
G|-------------------------------------------------------------| Repeat
D|-------------------------------------------------------------|  x 6
A|-------------------------------------------------------------|
E|-------------------------------------------------------------| 
Tap to rate this tab
 
# A B C D E F G H I J K L M N O P Q R S T U V W X Y Z