Song name
# A B C D E F G H I J K L M N O P Q R S T U V W X Y Z

Kolmas Nainen - Valehtelisin Jos Vittisin tab

   Kolmas Nainen
   Valehtelisin jos väittäisin

   Näin sen täytyy vaa olla,maybe?

  C                Am         Dm         C
E---0-----0------0---------0-----1----------|I
H-1---1--------1---------1---------3--------|I
G-------0--------------2------2------2---0--|I
D------------2----------------0--------0-2--|I
A-3----------------0---------------------3--|I
E-------------------------------------------|I

Valehtelisin jos väitäisin, öisin herääväni murehtimaan maailmaa
Valehtelisin jos väitäisin, ettei se kiinnosta mua ollenkaan

   F      C/E      Dm     Dm/C      Bb       F/A       G7
E--1-------0-------1-------1--------1---------1--------1--|
H--1-------1-------3-------3--------3---------1--------0--|
G--2-------0-------2-------2--------3---------2--------0--|
D--3-------2-------0-------0--------3---------3--------0--|
A--3-------3---------------3--------1---------0--------2--|
E--1-------0-------------------------------------------3--|
     F           C/E        Dm
siit onkai turha tehdä lauluja
     F                  C/E           Dm         Dm/C
kun näyttää siltä, että siit on turha pitää puheita
Bb           F/A   G7     C  Am F
turha piestä suutansa  ei laulaja

Valehtelisin jos väitäisin, vihaavani kauneutta
Valehtelisin jos väitäisin, ettei mikään mua pelota

ois kai siistii antaa periksi
toteais vain kylmästi ei tästä mitään tuu
lähtis kävelemään  painais oven kiinni perässään
Tap to rate this tab
 
# A B C D E F G H I J K L M N O P Q R S T U V W X Y Z