Song name
# A B C D E F G H I J K L M N O P Q R S T U V W X Y Z

Kombucha Mushroom People - Puff A Lump tab

Puff-A-Lump
by The Kombucha Mushroom People

Intro/Chorus

----------------------------|
----------------------------|
----------------------------|
----------------------------|   x2
----------------------------|
-0--5-5--3-3--2-2-2--1-1----|

------------------------------------|
------------------------------------|
------------------------------------|
------------------------------------|  x3
------------------------------------|
-5-5-5--3-3-3-3--2-2-2-2-2--1-1-1---|

Verse

--------------------------|
--------------------------|
--------------------------|
--------------------------|   x2
------4-4-------4-12-10---|
-5-5-------5-5------------|

Pre Chorus

---------------------------|
---------------------------|
---------------------------|
---------------------------|   x2
---1---1--3---1---1--5-----|
-1---1------1---1------1---|
Tap to rate this tab
# A B C D E F G H I J K L M N O P Q R S T U V W X Y Z