Song name
# A B C D E F G H I J K L M N O P Q R S T U V W X Y Z

Kommando Elefant - Falsche Helden chords

Highlighted       Show chord diagrams
Akkorde
D 2       A -        Bm/Gb 2        G 3
  3         2              3          3
  2         2              4          4
  -         2              4          5
  -         -              2          5
  -         -              2          3


Melodie
e|---7--5-----------------------7--5---------------------------------------|
B|---------7--3--5--5--3--5--7--------7--3--5--5--3--5--7------------------|
G|-------------------------------------------------------------------------|
D|-------------------------------------------------------------------------|
A|-------------------------------------------------------------------------|
E|-------------------------------------------------------------------------|

e|---7--5------------------------------------------------------------------|
B|---------7--3--5--5--3--5--7--8--7--3--0---------------------------------|
G|-------------------------------------------------------------------------|
D|-------------------------------------------------------------------------|
A|-------------------------------------------------------------------------|
E|-------------------------------------------------------------------------|

Intro: D
Vers: D A Bm/Gb G (immer gleiche Reihenfolge)
Chorus: D A Bm/Gb G
Break ("ueberall ist nirgendwo..."): Bm/Gb G A
Outro: Bm/Gb


D                                A
Falsche Freunde, falsch geboren, falsch gespielt und falsch verloren
Bm/Gb                          G
Falsche Jugend, falscher Gott, falsches Leben, falscher Tod
D                                  A
Falsche Vertraege und Versprechen, falsche Gefuehle und Verbrechen
Bm/Gb                         G
Plastik-Jesus, Plastikwelten, Plastikidole, Plastikhelden

D          A             Bm/Gb            G
Falsche Helden, falsche Helden, falsche Helden

D                                A
Falsche Haare, falsches Make-Up, falsche Liebe, afraid to wake up
Bm/Gb                             G
Mach kaputt was ich kaputt macht, in diesem Land zu leicht gesagt
D                            A
Falsche Liebe echt gefuehlt, echte Herzen doch unterkuehlt
Bm/Gb                              G
Mach kaputt was dich kaputt macht, in diesem Land zu leicht gesagt

D          A            Bm/Gb           G
Falsche Helden, Falsche Helden, Falsche Helden

Bm/Gb        G             A
Ueberall ist nirgendwo, wo willst du lieber sein?
Bm/Gb        G              A
ueberall ist nirgendwo, die Dinge werden nicht anders sein...

D         A               Bm/Gb
Falsche Helden, falsche Helden;
G
Zu spaet erkannt und aufgewacht im falschen Land.
D         A               Bm/Gb
Falsche Helden, falsche Helden;
G                                               Bm/Gb
Zu spaet erkannt und aufgewacht im falschen Land.

Offizielle Website der Band: http://www.kommandoelefant.at/
Tap to rate this tab
 
# A B C D E F G H I J K L M N O P Q R S T U V W X Y Z