Song name
# A B C D E F G H I J K L M N O P Q R S T U V W X Y Z

Konami - Mgo Theme tab

First off this is my first tab so go easy on me >.>

this is just a small part of the Metal Gear Online theme. The one from mgs3 but i didnt 
it out till i was listenning to it at the end of mgs4 during the credits.


E-----------------------------------|
B-----------------------------------|
G-----------------------------------|
D------------------12--14-14-12~----|
A---12--14--15--12------------------|
E-----------------------------------|


E-----------------------------------|
B-----------------------------------|
G-----------------------------------|
D-----------------12--14--12~-------|
A--12--14--15--12-------------------|
E-----------------------------------|


E----------------------------------------------------------------|
B--------------------13--15~-------------------------------------|
G-------------12--14-------------14--12--14--16------------------|
D--12--14--15---------------15~--------------------14-14~-13~----|
A----------------------------------------------------------------|
E----------------------------------------------------------------|


well thats all i was able to tab out lol credits go by fast when trying to tab out stuff 
lol well let me kow what ya think. cya l8r stay (sic)
Tap to rate this tab
# A B C D E F G H I J K L M N O P Q R S T U V W X Y Z