Guitaretab - guitar tabs
Song name
# A B C D E F G H I J K L M N O P Q R S T U V W X Y Z

Konami - Best Yet To Come tab

hey this is the ending song off metal gear solid..this tab sounds perfect to 
me hope you like it.d_t_a_2002@hotmail.com...jimi/hendrix16@ultimate-guitar.com
the guitaring doesnt come in until bout 1:40 into the song.
this is just chords Am and G plucked..

intro:
   Am                       G 
e------------------0-|-----------------3-----|
b-----1----1---------|-------3-----3-----3---|
g----2--2----2-------|---------0-----0-----0-|
d---2----2-----2-----|-----0-----0-----------|
a--0-------------0---|---2-------------------|
E--------------------|-3---------------------|


e------------------0-|-----------------3-----|
b-----1----1---------|-------3-----3-----3---|
g----2--2----2-------|---------0-----0-----0-|
d---2----2-----2-----|-----0-----0-----------|
a--0-------------0---|---2-------------------|
E--------------------|-3---------------------|


e------------------0-|-----------------3-----|
b-----1----1---------|-------3-----3-----3---|
g----2--2----2-------|---------0-----0-----0-|
d---2----2-----2-----|-----0-----0-----------|
a--0-------------0---|---2-------------------|
E--------------------|-3---------------------|
[ Tab from: http://www.guitaretab.com/k/konami/30168.html ]
chord changes here:
e---------------------------|------------------0------|
b-------3------------0------|------1--------1----1----|
g---------4--------0---0----|----2---2----2--------2--|
d------------------------0--|--2------2---------------|
a----5---------2------------|-----------0-------------|
E--5---------3--------------|-------------------------|

use these chords throughout the song:

e---------|----3-------|----0--------|----0-------]
b--1------|----3-------|----3--------|----0-------]
g--2------|----0-------|----4--------|----0-------]
d--2------|----0-------|----5--------|----0-------]
a---------|----2-------|----5--------|----2-------]
E---------|----3-------|----0--------|----3-------]

Cuimhne leat an t-am
Nuair a bhi tu sasta
An cuimhne leat an t-am
Nuair a bhi to ag gaire
Ta an saoi iontach
Ma chreideann tu ann
Tug aghaidh ar an saoi
is sonas sioari inar measc
Ceard a thrla do na laethanta sin
Ceard a thrla do na h-oicheanta sin
An cuimhin leat an t-am
Nuair a bhi tu faoi bhron
An cuimhin leat an t-am 
Go siorai sileadh na ndeor
An ormsa no orainne a bhi an locht
Ag mothu cailite s'ar fan

...then comes the solo:
~=let ring
^=bend upwards
Related for Best Yet To Come tab
×
Best way to learn
"Best Yet To Come"